Dealer

User avatar
Barry Egan
Posts: 95
Joined: Mon Aug 04, 2008 2:09 pm
Contact:

Re: Dealer

Postby Barry Egan » Thu Feb 05, 2009 1:04 am

I'll try to put it up tomorrow.
Image

User avatar
Barry Egan
Posts: 95
Joined: Mon Aug 04, 2008 2:09 pm
Contact:

Re: Dealer

Postby Barry Egan » Thu Feb 05, 2009 3:58 pm

I tabbed the rest out. Even the ending. Enjoy. It's in the original post.
Image

Psyre
Posts: 22
Joined: Tue Sep 15, 2009 12:31 am

Re: Dealer

Postby Psyre » Thu Feb 04, 2010 1:47 am

I had no clue that this was originally done by Safety in Numbers, nor did I know Jake and Josh were in Safety in Numbers, makes me appreciate that Brand New/Safety in Numbers split I have.

chiben22
Posts: 2
Joined: Tue Jul 20, 2010 2:40 am

Re: Dealer

Postby chiben22 » Sat Jul 31, 2010 3:53 am

I'll try to put it up tomorrow.

too
Buy WOW Gold! It's an important test for us to do. I believe that we will go for WOW Gold again as long as we have a try.

transylvanian
Posts: 68
Joined: Wed Oct 13, 2010 9:29 pm
Location: fredericton, nb
Contact:

Re: Dealer

Postby transylvanian » Sat Oct 23, 2010 6:10 pm

itsafake wrote:does anyone know where to get the original version of this song?
or any music by safety in numbers, i like hot rod circuit but i can't find any thing by them.
much appreciated
http://www.youtube.com/watch?v=ap-cULjpuwQ There's the YouTube link!
Jake Turner of SA was in the band, too. The split with Brand New is on most P2P networks and shows up on eBay once in a while. The other two are on Amazon for pretty cheap. Everything is OOP otherwise, though

Amazon links
Build & Structure http://www.amazon.com/Build-Structure-S ... 671&sr=1-3
In the Key of D http://www.amazon.com/Key-D-Safety-Numb ... 671&sr=1-4
Love, it will not betray you, dismay or enslave you.
It will set you free. Be more like the man you were made to be.
There is a design, an alignment, a cry of my heart to see
the beauty of love as it was meant to be.
Mumford & Sons

User avatar
steveo
Moderator
Posts: 89
Joined: Sat Aug 02, 2008 4:46 pm

Re: Dealer

Postby steveo » Wed Oct 27, 2010 1:21 am

never knew this, pretty sweet
Image
Oh, I'll be around to pick your pretty heart right off the ground when all this
fucking fashion brings you down.
http://www.purevolume.com/stevearuilioistheman

User avatar
Norgan
Posts: 237
Joined: Wed Aug 26, 2009 10:30 pm
Location: Baltimore, MD
Contact:

Re: Dealer

Postby Norgan » Sun Dec 13, 2015 7:35 pm

Wanted to continue the work form Barry's start. Here's what I got. Strumming pattern NOT tabbed out, so you'll have to figure it out by playing along. Repeat sections as necessary.

Also, a video walking through the tab, showing some of the chords and such: https://youtu.be/KekzxPy2lfU

Code: Select all

Tuning: Standard (EADGBe)


Intro/Verse:
e|----------------|----------------|----------------|----------------|
B|----------------|----------------|----------------|----------------|
G|4-4-4-4-4-4-4-4-|----4-----4-4-4-|4-4-4-4-4-4-4-4-|----4-----4-4-4-|
D|2-2-2-2-2-2-2-2-|----2-----2-2-2-|2-2-2-2-2-2-2-2-|----2-----2-2-2-|
A|2h4-4-4---0-0-0-|---(2)----0-0-0-|2-4-4-4---0-0-0-|---(2)----0-0-0-|
E|--------4-------|0---0---4-------|--------4-------|0---0---4-------|
           Wanting you to know you lost all taste...




Pre-Chorus:
e|--------x-x-----|----0-------0---|--------x-x-----|----0-------0---|
B|--------x-x-----|------0-------0-|--------x-x-----|------0-------0-|
G|4-4-4-4-x-x-4~--|----------------|4-4-4-4-x-x-4~--|----------------|
D|2-2-2-2-x-x-2~--|----------------|2-2-2-2-x-x-2~--|----------------|
A|2-4-4-4-x-x-0~--|--0-------0-----|2-4-4-4-x-x-0~--|--0-------0-----|
E|--------x-x-----|----------------|--------x-x-----|----------------|
                     And I don't care...               If you sell your...


e|--------x-x-----|----0-------0---|--------x-x-----|----0---0---0---|
B|--------x-x-----|------0-------0-|--------x-x-----|----0---0---0---|
G|4-4-4-4-x-x-4~--|----------------|4-4-4-4-x-x-4~--|----------------|
D|2-2-2-2-x-x-2~--|----------------|2-2-2-2-x-x-2~--|-(2)-(2)-(2)-(2)|
A|2-4-4-4-x-x-0~--|--0-------0-----|2-4-4-4-x-x-0~--|--0---0---0---0-|
E|--------x-x-----|----------------|--------x-x-----|----------------|
                     I Begin to stare...               Grabbing hold of...




Chorus:
e|----------------|----------------|----------------|----------------|
B|-----(0)-(0)----|-(0)-(0)--------|----------------|---(0)---(0)----|
G|------1---1-----|--1---1---------|--------------8-|----8-----8-----|
D|------2---2-----|--2---2---------|--7-----6-----9-|----9-----9-----|
A|----------------|----------------|--5-----4-----7-|----7-----7-----|
E|2---2--(2)--2---|2--(2)--2-----2-|----------------|----------------|
              As long as I'll         be there           in your


e|----------------|----------------|----------------|----------------|
B|----------------|----------------|----------------|----------------|
G|----------------|----------------|4-4-4-4-4---4-4-|4-4-4---4-4-4-4-|
D|2-----4-----2---|--4-----2-------|2-2-2-2-2---2-2-|2-2-2---2-2-2-2-|
A|2-----2-----2---|--2-----2-------|0-0-0-0-0---0-0-|0-0-0---0-0-0-0-|
E|0-----0-----0---|--0-----0-------|----------------|----------------|
  eyes




Outro:
e|----------------|----------------|----0-----------|----------------|
B|------4---------|----------------|------4---------|----------------|
G|----4-----------|----4-------4---|--------4-------|----4-------4---|
D|--2-------------|--2---2---2---2-|--2-------------|--2---2---2---2-|
A|4---------------|0---------------|4---------------|0---------------|
E|----------------|--------0-------|----------------|--------0-------|
   


e|----------------|----------------|----0-----------|----------------|
B|------4---------|----------------|------4---------|----------------|
G|----4-----------|----4-------4---|--------4-------|----4-------2-1-|
D|--2-------------|--2---2---2---2-|--2-------------|--2---2---2-----|
A|4---------------|0---------------|4---------------|0---------------|
E|----------------|--------0-------|----------------|--------0-------|
          so repulsive but I like your style


e|----------------|----------------|----0-----------|-----------------|
B|------4---------|----------------|------4---------|-----------------|
G|----4-----------|----4-------4---|--------4-------|----4-------1/2-1|
D|--2-------------|--2---2---2---2-|--2-------------|--2---2---2------|
A|4---------------|0---------------|4---------------|0----------------|
E|----------------|--------0-------|----------------|--------0--------|
          smoke a joint just to pass the time


e|----------------|----------------|----0-----------|----------------|
B|------4---------|----------------|------4---------|----------------|
G|----4-----------|----4-------4---|--------4-------|----4-------4---|
D|--2-------------|--2---2---2---2-|--2-------------|--2---2---2---2-|
A|4---------------|0---------------|4---------------|0---------------|
E|----------------|--------0-------|----------------|--------0-------|
          your so repulsive but I like your style


e|----0-----------|----------------|----0-----------|---------------------|
B|------4---------|----------------|------4---------|---------------------|
G|--------4-------|----4-------4---|--------4-------|4-4-4-4-4---4-4-4-4-4|
D|--2-------------|--2---2---2---2-|--2-------------|2-2-2-2-2---2-2-2-2-2|
A|4---------------|0---------------|4---------------|0-0-0-0-0---0-0-0-0-0|
E|----------------|--------0-------|----------------|---------------------|
          we smoke a joint just to pass the time

Norgan is a real boy!


Return to “Dormroom Demos”

Who is online

Users browsing this forum: No registered users and 1 guest