For the Silent

DefenderoftheGenre
Posts: 1
Joined: Fri Jul 16, 2010 11:56 am

For the Silent

Postby DefenderoftheGenre » Fri Jul 16, 2010 12:51 pm

Code: Select all

Intro:

e-----------------------------------------------
B-----------------------------------------------
G-----------------------141414--161616--17
D---333--555--7-------x-x-x----x-x-x----x-
A---333--555--7--x3--121212--141414--15
E---111--333--5-------------------------------

Verse:

e---------------------------------------------------
B---------------------------------------------------
G-----------------------141414--161616--17----
D---333--555--7-------x-x-x----x-x-x----x---x2
A---333--555--7--x2--121212--141414--15----
E---111--333--5-----------------------------------

Pre-Chorus:

Will you stand tall...

e-----------------------------
B-----------------------------
G----------------------------
D---333--555--7--88-------
A---333--555--7--88--x2--
E---111--333--5--66-------

Give it one last go...

e--------------------------------------------------------------------
B--------------------------------------------------------------------
G---5---------------------------------------------------------------
D---5--5-----------------------------------------------------88888
A---3--5--Play both chords continuously and then go--88888
E-------3-----------------------------------------------------66666


Chorus:

(I'm not 100% on the chorus, so if anyone's got a better version they can put up, please do so).

All of the Silent...

e-------------------------------------------------
B-------------------------------------------------
G-------------------------------------------------
D---3333--5555--7777----3333--5555--77---
A---3333--5555--7777----3333--5555--77---
E---1111--3333--5555----1111--3333--55---

Only you can save us...

e---------------------
B---------------------
G---------------------
D---3333--5555--77
A---3333--5555--77
E---1111--3333--55

I haven't figured out the bridge yet. This is my first tab ever, so it's bound to have a few mistakes. Hope it's good enough.


Return to “Dormroom Demos”

Who is online

Users browsing this forum: No registered users and 2 guests