Signal The Riflemen

Post Reply
User avatar
steveo
Legend
Posts: 89
Joined: Sat Aug 02, 2008 4:46 pm

Signal The Riflemen

Post by steveo » Sat Aug 02, 2008 5:08 pm

Code: Select all

Say Anything
"Signal the Riflemen"
Tabbed by: Matt Warr

INTRO 
E|---------------------------------------------------------- 
B|-----5---------------------------5------------------------ 
G|--5-7-75--5----45--45--45----5-7-75--5----45--45--45-5~~~ 
D|--------7--5--7---5---3-------------7--5--7---5---3---5~~~ 
A|--------------------------3----------------------------3~~~ 
E|---------------------------------------------------------- 

CHORDS: 
  
   Am  F  C  G 
E|--0--1--0--3--- 
B|--1--1--1--3--- 
G|--2--2--0--0--- 
D|--2--3--2--0--- 
A|--0--3--3--2--- 
E|----(1)----3---


I can't work, there's too many wars overseas 

C 
There's too much creative juice in me 

G 
to focus in on that 

Am F 
So I'll pace around, I'll chat with your answering machine 

C 
As my thoughts drift into the unclean 

G 
I have to take them back 

PRECHORUS (you know, i know, we both know...) 
E|------------------------------ 
B|------------------------------ 
G|-----------5-------------5---- 
D|--3---3----5-5--3---3----5-5-- 
A|--3---3----3-5--3---3----3-5-- 
E|--1---1------3--1---1------3-- 

(teachers labelled all the...) 
E|------------------------------ 
B|------------------------------ 
G|------------------------------ 
D|--2-2-2-2-2-2-2-2-3-3-3-3-3--- 
A|--2-2-2-2-2-2-2-2-3-3-3-3-3--- 
E|--0-0-0-0-0-0-0-0-1-1-1-1-1--- 


CHORUS (you and me can set them free...) 
E|--------------------------------- 
B|--------------------------------- 
G|--5---555-------7----777--------------- 
D|--5---5553---3337----7776-66-65-55-5- 
A|--3---3333---3335----5556-66-65-55-5- 
E|---------1---111--------4-66-63-33-3- 

(all i need is your love) 
E|----------- 
B|----------- 
G|-----5----- 
D|--7--5--3-- 
A|--7--3--3-- 
E|--5-----1-- 

FILL 1... after (and a revolution) 
E|----------------------- 
B|----------------------- 
G|--2~4-5-0~4-5---4-5---- 
D|--------------3~------- 
A|--------------------3~- 
E|----------------------- 

FILL 2... during second chorus 
E|------------------------ 
B|--10-8---8--10-8-------- 
G|-------9~--------9-99~7- 
D|------------------------ 
A|------------------------ 
E|------------------------ 


BRIDGE (let's make love...) 
E|-------------------------------------- 
B|--6-53-1-35-6-53-1-35~---------------- 
G|-----------------------22-222-22-222--   repeat 2x then... 
D|-----------------------22-222-22-222-- 
A|-----------------------00-000-00-000-- 
E|-------------------------------------- 

(i'll dry my tears...) 
E|-------------------------------- 
B|-----0~1~~-----0~1~444444444444- 
G|--2~~-------2~~----------------- 
D|--3~~~~~~~--3~~~~~~------------- 
A|--3~~~~~~~--3~~~~~~------------- 
E|--1~~~~~~~--1~~~~~~-------------
Image
Oh, I'll be around to pick your pretty heart right off the ground when all this
fucking fashion brings you down.
http://www.purevolume.com/stevearuilioistheman

Post Reply