Until The Bombs

Post Reply
User avatar
the futile
Posts: 63
Joined: Sun Aug 10, 2008 7:56 pm

Until The Bombs

Post by the futile » Mon Aug 11, 2008 1:02 am

Code: Select all

Intro/Verse 1: 

E|-------------------------------------| 
B|-------------------------------------| 
G|-9--9/11---14---11\9--7--7-7-7-7/9---| 
D|-9--9/11---14---11\9--7--7-7-7-7/9---| 
A|-7--7/9----12----9\7--5--5-5-5-5/7---| 
E|-------------------------------------| 

Interlude: 

E|----------------------------------------| 
B|----------------------------------------| 
G|-----9-9--11-11--6-6--7-7--7-7------9-9-| 
D|--7--9-9--11-11--6-6--7-7--7-7--7-7-9-9-| 
A|--7--7-7---9--9--4-4--5-5--5-5--7-7-7-7-| 
E|--5-----------------------------5-5-----|

You've got to go with the motion, oh
Can you feel it in your bones?

framecitykiller
Posts: 1
Joined: Tue Sep 16, 2008 9:53 pm

Re: Until The Bombs

Post by framecitykiller » Tue Sep 16, 2008 10:33 pm

Code: Select all

E|--------------------------------------------|
B|--------------------------------------------|
G|--444-----------777----999--1414-1313|
D|--444---444----777----999---x--x--x-x-|
A|--222---444----555----777--1212-1111-|
E|---------222----------------------------| 

chiben22
Posts: 2
Joined: Tue Jul 20, 2010 2:40 am

Re: Until The Bombs

Post by chiben22 » Sat Jul 31, 2010 3:54 am

When you meet something you cannot resolve please do not worry, you can follow the tip maybe you can resolve it.

wow!!
Buy WOW Gold! It's an important test for us to do. I believe that we will go for WOW Gold again as long as we have a try.

Post Reply