A Certain Type of Genius

luke
Posts: 11
Joined: Sun Aug 10, 2008 10:59 pm

A Certain Type of Genius

Postby luke » Tue Aug 12, 2008 10:58 pm

A CERTAIN TYPE OF GENIUS

Code: Select all

E|---------------------------------------
B|---------------------------------------
G|--55555555----------77777979-----------
D|--55555555-55555555-77777979-77777575--
A|--33333333-55555555-55555757-77777575--
E|-----------33333333----------55555353--
Intro – Rhythm, palm muted

E|-----------------------------------------------
B|-----------------------------------------------
G|-55~-x5-------------77~--7/9\7/9\7-----------------
D|-55~-x5-55~-x5—-77~-xx-x-x-x-x-77~-x5/7\5/7\5--
A|-33~-x3-55~-x5—-55~-x5/7\5/7\5-77~-xx-x-x-x-x--
E|-----—--33~-x3—-----x--------------55~-x3/5\3/5\3—-
Intro – Lead

E|-----------------------       E|------------------------
B|-----------------------       B|------------------------
G|--5~--7~---------------       G|--5~--7~----------------
D|--5~--7~--7~--7-5-7-5--       D|--5~--7~--7~--5~--5-3~--
A|--3~--5~--7~--7-5-7-5—-       A|--3~--5~--7~--5~--5-3~--
E|----------5~--5-3-5-3—- x2 then E|------------5~--3~--3-1~--
Chorus (“the stench of love...”)   (“Believing all the lies...”)

E|----------------------------------
B|----------------------------------
G|--55~-555-------77~-7975----------
D|--55~-55555~-55577~-797577557755--
A|--33~-33355~-55555~-575377557755--
E|---------33~-333--------55335533—-
Verse (“Friday night...”)

E|------------------------------------------
B|------------------------------------------
G|--5-5-5555-7-7-7777-----------------------
D|--5-5-5555-7-7-7777-7-7-7777-xxx7-5-7-55--
A|--3-3-3333-5-5-5555-7-7-7777-xxx7-5-7-55--
E|--------------------5-5-5555-xxx5-3-5-33—-
Chorus (“Won’t be there...”)

E|---------------------------------------
B|---------------------------------------
G|-5-5-5555-7-7-7777---------------------
D|-5-5-5555-7-7-7777-7777-5555-3-3-3333--
A|-3-3-3333-5-5-5555-7777-5555-3-3-3333--
E|-------------------5555-3333-1-1-1111—
Chorus ending (“Deep inside...”)

E|--5-5-5-5-3-3-3-3--
B|--5-5-5-5-3-3-3-3--
G|--5-5-5-5-4-4-4-4--
D|--7-7-7-7-5-5-5-5--
A|--7-7-7-7-5-5-5-5--
E|--5-5-5-5-3-3-3-3—-
Transition (“Why should I even try?”) (You don't have to play barre chords but I think they sound better)

E|---------------------------------------
B|---------------------------------------
G|-----5-5-----------------5-5-----------
D|-3-3-5-5-3-3-7-7755--3-3-5-5-55555555--
A|-3-3-3-3-3-3-7-7755--3-3-3-3-55555555--
E|-1-1-----1-1-5-5533--1-1-----33333333—-
Bridge (“I will let the oil soak...”)

E|--------------------------------------      E|------
B|--------------------------------------      B|------
G|-55555555----------77777777-----------      G|------
D|-55555555-55555555-77777777-77777777--      D|--7~--
A|-33333333-55555555-55555555-77777777--      A|--7~--
E|----------33333333----------55555555—- x2 end on E|--5~--
Outro – Rhythm, palm muted

E|------------------------------------------------
B|------------------------------------------------
G|--5555444422222222-542-------7t-6t-------7-64-------
D|------------------------------5--5----------7~------—7-7~--
A|---------------------------------5----------7~---------7~--
E|---------------------------------3----------5----------5~--
Outro – Lead

Tab Legend
x - mute
/ - Slide up
\ - Slide down
t – tremolo pick
~ - Let ring (or slight vibrato)

Return to “Dormroom Demos”

Who is online

Users browsing this forum: No registered users and 1 guest