Dealer

ineverplan
Posts: 2
Joined: Sun Sep 28, 2008 3:46 pm

Dealer

Postby ineverplan » Sun Sep 28, 2008 3:48 pm

I noticed there isn't a tab for this.
I really like this song.
Does anyone have this tab, that they're willing to share?
I could tab it if not.

User avatar
steveo
Legend
Posts: 89
Joined: Sat Aug 02, 2008 4:46 pm

Re: Dealer

Postby steveo » Sun Sep 28, 2008 7:12 pm

Tab it brosive
Image
Oh, I'll be around to pick your pretty heart right off the ground when all this
fucking fashion brings you down.
http://www.purevolume.com/stevearuilioistheman

smartalec1213
Posts: 11
Joined: Fri Sep 26, 2008 4:36 pm

Re: Dealer

Postby smartalec1213 » Thu Oct 02, 2008 8:40 pm

yeah i agree.....this song rocks

disrespect me and i'll smash youuuur face
lol

itsafake
Posts: 5
Joined: Sun Aug 10, 2008 12:44 pm

Re: Dealer

Postby itsafake » Sun Oct 19, 2008 12:59 pm

does anyone know where to get the original version of this song?
or any music by safety in numbers, i like hot rod circuit but i can't find any thing by them.
much appreciated

ronnie9
Posts: 1
Joined: Mon Oct 20, 2008 9:54 pm

Re: Dealer

Postby ronnie9 » Mon Oct 20, 2008 10:06 pm

I know how to play the verse and first part of the chorus but I can't tab it using protocal since i don't know how to do the code thing. Any way I can enroll in tabbing 101?

User avatar
steveo
Legend
Posts: 89
Joined: Sat Aug 02, 2008 4:46 pm

Re: Dealer

Postby steveo » Wed Oct 22, 2008 6:59 pm

what you mean?
Image
Oh, I'll be around to pick your pretty heart right off the ground when all this
fucking fashion brings you down.
http://www.purevolume.com/stevearuilioistheman

User avatar
Barry Egan
Posts: 95
Joined: Mon Aug 04, 2008 2:09 pm
Contact:

Re: Dealer

Postby Barry Egan » Thu Oct 23, 2008 10:56 am

ronnie9 wrote:I know how to play the verse and first part of the chorus but I can't tab it using protocal since i don't know how to do the code thing. Any way I can enroll in tabbing 101?


Just use the code button above where you type the post.

[ code ]Enter tab here[ /code ] (without the spaces of course)
Image

Pottah
Posts: 3
Joined: Thu Nov 13, 2008 1:27 am

Re: Dealer

Postby Pottah » Thu Nov 13, 2008 1:35 am

PLZ PLZ PLZ PL0X tab dis i love this song me and a bud need to learn it and iam exactly pro at tabbing even one guitar let alone 2

User avatar
Barry Egan
Posts: 95
Joined: Mon Aug 04, 2008 2:09 pm
Contact:

Re: Dealer

Postby Barry Egan » Fri Nov 14, 2008 1:52 pm

Wow...I just found this song yesterday. I don't know why it's not on my unreleased Say Anything CD, but whatever. I'll learn the song in parts; here's the ending.

As you probably know, my tabs aren't that detailed so bear with me.

Code: Select all

Intro/Verse
E|-----------------------------------------------|
B|-----------------------------------------------|
G|-4-4-4-4--4-4-4-4-4--4-4-4--4-4-4-4------------|
D|-2-2-2-2--2-2-2-2-2--2-2-2--2-2-2-2------------|
A|-2h4-4-4----0-0-0-0--2-2-2----0-0-0------------|
E|----------4----------0-0-0--4------------------|

or
(I think he actually plays it like this)
e|-----------------------------------------------|
B|-----------------------------------------------|
G|-----------------------------------------------|
D|-9-9-9-9--9-9-9-9-9--9-9-9--9-9-9-9------------|
A|-7-7-7-7--7-7-7-7-7--7-7-7--7-7-7-7------------|
E|-7h9-9-9--4h5-5-5-5--0-0-0--4-5-5-5------------|

"I don't care"
e|--------------------0-----0---------------------0-----0-----|
B|----------------------0-----0---------------------0-----0---|
G|---4-4-4--4-4-4-4-4-----4--------4-4-4--4-4-4-4-----4-------|
D|---2-2-2--2-2-2-2----------------2-2-2--2-2-2---------------|
A|-2h4-4-4--0-0-0-0--------------2h4-4-4--0-0-0---------------|
E|------------------------------------------------------------|

"As long as i'll be there" x2
e|---------------------------0-0-0-0--0--0--0--0--0-0-0--0-0-0-0-0-0-------|
B|--------------(0)-(0)------0-0-0-0--0--0--0--0--0-0-0--0-0-0-0-0-0-------|
G|-----1---1-----1---1--2-1--8-8-8-8--4--4--4--4--4-4-4--4-4-4-4-4-4-------|
D|-----2---2-----2---2--2-2--9-9-9-9--2--2--2--2--2-2-2--2-2-2-2-2-2-------|
A|----------------------0-0--7-7-7-7--4--2--4--0--4-4-4--0-0-0-0-0-0-------|
E|-2-2---2---2-2---2-------------------------------------------------------|

Ending(repeat with some add ons)                  End on
e|--------------------------------0------------------------|-0---|
B|-------4--------------------------4----------------------|-0---|
G|-----4--------4--------4------------4------4--------4----|-4---|
D|---2--------2---2----2---2----2----------2---2----2---2--|-2---|
A|-4--------0-----------------4----------0-----------------|-0---|
E|-------------------0----------------------------0--------|-----|
Last edited by Barry Egan on Thu Feb 05, 2009 3:58 pm, edited 1 time in total.
Image

TheStarsScar
Posts: 9
Joined: Sun Dec 07, 2008 8:33 pm

Re: Dealer

Postby TheStarsScar » Tue Jan 27, 2009 9:27 am

awesome job so far. everything sounds right to me. i can't wait to see the rest of it! :D


Return to “Dormroom Demos”

Who is online

Users browsing this forum: No registered users and 1 guest