kristey (song shop)

For songs that are not in any of the above categories.
maxpemis
Posts: 31
Joined: Mon Nov 30, 2009 6:30 pm

kristey (song shop)

Postby maxpemis » Fri Jan 15, 2010 6:36 pm

this is one from max's song shop that someone posted on youtube.
Found the link on the boards on say anything's website.

http://www.youtube.com/watch?v=9Vme08Glb3M

the song has a pretty good and easy guitar part but the lyrics aren't so great.
If he was writing about what he feels and not what someone else
wants him to write about i think this song would be way better.

you should be able to figure out the strumming pattern on your own.
just listen to the song.

e|-----------------------------------------------------|
B|-3-3---3/ 5/3---3/5/3----3-3--88775533----------|
G|-0-0---0----0---0----0----0-0--00000000---------|
D|-x-x---x----x---x----x----2-2---------------------|
A|-3-3---3----3---3----3----0-0---------------------|
E|----------------------------------------------------|

e|----------------------------------------------------|
B|---3-----3-----3-----3-----------------------------|
G|---0-----0-----0-----0-----------------------------|
D|---x-----2-----x-----2-----------------------------|
A|---3-----0-----3-----0-----------------------------|
E|----------------------------------------------------|

e|----------------------------------------------------|
B|-----3-----3-----3---------------------------------|
G|-----0-----0-----0---------------------------------|
D|-----2-----x-----x---------------------------------|
A|-----2-----3-----5---------------------------------|
E|----------------------------------------------------|

the last part is something like
e|----------------------------------------------------|
B|-----8-----8---------------------------------------|
G|-----0-----0-----0---------------------------------|
D|-----x-----x-----5---------------------------------|
A|-----7-----9-----3---------------------------------|
E|----------------------------------------------------|

User avatar
steveo
Moderator
Posts: 89
Joined: Sat Aug 02, 2008 4:46 pm

Re: kristey (song shop)

Postby steveo » Sun Jan 17, 2010 2:53 pm

Is everyone ok with posting song shop songs? since they are private
Image
Oh, I'll be around to pick your pretty heart right off the ground when all this
fucking fashion brings you down.
http://www.purevolume.com/stevearuilioistheman

maxpemis
Posts: 31
Joined: Mon Nov 30, 2009 6:30 pm

Re: kristey (song shop)

Postby maxpemis » Mon Jan 18, 2010 11:03 pm

yeah i wasn't sure but i figure if the owner wants to post their song shop then why not tab it

User avatar
Scott
Site Admin
Posts: 540
Joined: Sat Aug 02, 2008 11:33 am
Location: Maryland
Contact:

Re: kristey (song shop)

Postby Scott » Tue Jan 19, 2010 9:11 am

steveo wrote:Is everyone ok with posting song shop songs? since they are private



yeah there are a ton of SS songs on youtube and the label has not complained to have them taken down so there's no reason not to tab them. we're not hosting the song or something.
Self-inflicted or not, I find myself on the farthest star, foreign to everything like I woke up with a German tongue.

maxpemis
Posts: 31
Joined: Mon Nov 30, 2009 6:30 pm

Re: kristey (song shop)

Postby maxpemis » Wed Jan 20, 2010 1:42 am

what other song shops have you seen? And what is this secret origins i keep reading about?

User avatar
Norgan
Posts: 237
Joined: Wed Aug 26, 2009 10:30 pm
Location: Baltimore, MD
Contact:

Re: kristey (song shop)

Postby Norgan » Wed Jan 20, 2010 3:44 am

maxpemis wrote:And what is this secret origins i keep reading about?



http://music.is-amazing.com/2009/11/4/s ... rigin-2009
Norgan is a real boy!

maxpemis
Posts: 31
Joined: Mon Nov 30, 2009 6:30 pm

Re: kristey (song shop)

Postby maxpemis » Thu Jan 21, 2010 12:08 pm

thanks.


Return to “Other”

Who is online

Users browsing this forum: No registered users and 1 guest