Jessie and My Whetstone

For songs that are not in any of the above categories.
somethingclever
Posts: 1
Joined: Sun Jan 17, 2010 3:44 pm

Jessie and My Whetstone

Postby somethingclever » Mon Jan 18, 2010 12:54 pm

a Saves the Day cover they did.

Code: Select all

main riff, there are variations.
|----------------------------------------------------------------------------|
|----------------------------------------------------------------------------|
|------------------------5-5-----------------------------5-5--/4--5-------|
|---7----5-5----3-3----5-5-----7-7----5-5----3-3----5-5--/4--5--------|
|---7----5-5----3-3----3-3-----7-7----5-5----3-3----3-3--/2--3--------|
|---5----3-3----1-1-------------5-5----3-3----1-1------------------------|

that repeats, then the occasional
|------------------|
|------------------|
|-------5~--------|
|-------5~--------|
|-------3~--------|
|------------------|

and the "one sweet night, together, our one sweet night together" part is this i think.
|---------------------------------------------------------------------------|
|---------------------------------------------------------------------------|
|------5--------------------------------------------------------------------|
|------5--(x8)---5---------3-----------------------------------------------|
|------3----------5-(x3?)--3--(x8?)---------------------------------------|
|-----------------3---------1-----------------------------------------------|

 
I'm so broken, i can barely even rhyme!

Return to “Other”

Who is online

Users browsing this forum: No registered users and 1 guest