You Don't See Me Right And Mystery Rash

For songs that are not in any of the above categories.
Psyre
Posts: 22
Joined: Tue Sep 15, 2009 12:31 am

You Don't See Me Right And Mystery Rash

Postby Psyre » Thu Jan 21, 2010 7:19 pm

I know it's unlikely, but does anyone have a tab for either of these by any chance?

User avatar
the futile
Posts: 63
Joined: Sun Aug 10, 2008 7:56 pm

Re: You Don't See Me Right And Mystery Rash

Postby the futile » Thu Jan 21, 2010 7:25 pm

Psyre wrote:I know it's unlikely, but does anyone have a tab for either of these by any chance?


Mystery Rash is just We Will Erase All.... in the For Sale EP tab thread, i'll try find my You Don't See Me Right tab and get it on here ASAP.

you don't see me right:

Code: Select all

Intro
e|-----------------------------------------------------|
B|-----------------------------------------3-0---------|
G|------4-------0-----------4-----------0--------------|
D|--5-------5-----------5----------5-------------------|
A|3---3---0---0------3---3-------0---0-----------------|
E|-----------------------------------------------------|


(I want you..)
e|---------------------------------------------------------|
B|---------------------------------------------------------|
G|---------4/-5---7----xx---8/-7--5------------------------|
D|--5/-7---4/-5---7----xx---8/-7--5--7---5/-7-7-7----------|
A|--5/-7---2/-3---5----xx---6/-5--3--7---5/-7-7-7----------|
E|--3/-5---------------------------------5----3/5--5-5-----|
You've got to go with the motion, oh
Can you feel it in your bones?

Psyre
Posts: 22
Joined: Tue Sep 15, 2009 12:31 am

Re: You Don't See Me Right And Mystery Rash

Postby Psyre » Sun Jan 24, 2010 1:27 am

ahh thanks alot man, yea, my for sale EP doesn't work, which is a bummer because I really like slumming it with johnny also. I'll just have to keep trying to get a good version. Thanks again

User avatar
the futile
Posts: 63
Joined: Sun Aug 10, 2008 7:56 pm

Re: You Don't See Me Right And Mystery Rash

Postby the futile » Sun Jan 24, 2010 11:19 am

Psyre wrote:ahh thanks alot man, yea, my for sale EP doesn't work, which is a bummer because I really like slumming it with johnny also. I'll just have to keep trying to get a good version. Thanks again


no problem, i'm not sure if we should have separate thread though for these 2 songs. i'll leave that up to admin.
You've got to go with the motion, oh
Can you feel it in your bones?


Return to “Other”

Who is online

Users browsing this forum: No registered users and 1 guest