Thoughts On A Liberal Education

For songs that are not in any of the above categories.
User avatar
the futile
Posts: 63
Joined: Sun Aug 10, 2008 7:56 pm

Thoughts On A Liberal Education

Postby the futile » Mon Aug 11, 2008 12:59 am

Code: Select all

INTRO
E|-----------------------------------
B|------5------3---0----5------3---0-
G|-------4-4-------------4-4---------
D|--2~~2--2---4---2----2--2---4---2--   Repeat - end on D and let ring
A|--2~~-----5~--0~----------5~--0~---
E|--0~~-------------0~~--------------


VERSE (I've been waitin for years...) (Put my head in the books...)
E|-----------------------------------
B|------5------3---0----5------3---0-
G|-------4-4-------------4-4---------
D|--2~~2--2---4---2----2--2---4---2--
A|--2~~-----5~--0~----------5~--0~---
E|--0~~-------------0~~--------------

(gone and...) (revive me...)
E|-------------------------
B|-------------------------
G|-----7~-------9~9~--9-9~-
D|----7--7-7--7/9~9~-9-9---
A|--5~----5-5~--7~--7------
E|--------------0~---------

CHORUS (i'll silence you...)
E|----------------------
B|----------------------
G|--5-5-554-4-447-7-7-7-
D|--5-5-555-5-557-7-7-7-    Repeat
A|--3-3-335-5-555-5-5-5-
E|--------3-3-33--------

(this is my last song for you...)
E|-----------------------------
B|--5-555----------------------
G|--5-555-4-44477777-5-5-5-5-7-
D|--5-555-5-55577777-5-5-5-5-7-   Repeat
A|--3-333-5-55555555-3-3-3-3-5-
E|--------3-333--------------5-

BRIDGE (number two...)
E|-------------------
B|-------------------
G|-------------------
D|------5--5----5--5-     Repeat until chorus
A|-----2-2-----2-2---
E|--0~~---0-0~~---0--

You've got to go with the motion, oh
Can you feel it in your bones?

stalk_on
Posts: 4
Joined: Mon May 17, 2010 2:15 pm

Re: Thoughts On A Liberal Education

Postby stalk_on » Mon May 17, 2010 2:31 pm

This, along with others posted by "the futile," was tabbed by me about 5 years ago, for my now-defunct SA site, "Stalk On."

Conversely, Steve_O gave credit on my Signal the Rifleman tab. Appreciated.


Return to “Other”

Who is online

Users browsing this forum: No registered users and 1 guest