The Presidential Suite

For songs that are not in any of the above categories.
User avatar
the futile
Posts: 63
Joined: Sun Aug 10, 2008 7:56 pm

The Presidential Suite

Postby the futile » Mon Aug 11, 2008 1:00 am

Code: Select all

INTRO  **scratch a bunch of times before really beginnning... 
E|------------------------------------------------------------------------
B|------------------------------------------------------------------------
G|-----6~~666--6~~666--6~~666---------9--6~~666--6~~666--6~~666---------9-
D|-----7~~777--7~~777--7~~777---7-9h11---7~~777--7~~777--7~~777---7-9h11--
A|---------------------------7h9-------------------------------7h9--------
E|---5~~~~5555~~~~5555~~~~555----------5~~~~5555~~~~5555~~~~555-----------


CHORUS (you've been led on...)
E|---------------------------------------
B|---------------------------------------
G|-----6~~666--6~~666--6~~6667~~766~~66--
D|-----7~~777--7~~777--7~~7777~~777~~77--   Repeat
A|-------------------4----4445~~544~~44--
E|---5----5557----777--------------------


VERSE (they paved the way...)
E|-----------------------------------------
B|-----------------------------------------
G|--4-44-44-44-4-2-22-22-22-2-7-77-77-77-7-
D|--4-44-44-44-4-4-44-44-44-4-7-77-77-77-7-
A|--2-22-22-22-2-4-44-44-44-4-5-55-55-55-5-
E|---------------x-xx-xx-xx-x--------------

(...in the capital of shame...)
E|------------------------------------------------------
B|------------------------------------------------------
G|--4-44-44-44-4-7-77-77-77-7-4-44-44-44-4-7-77-77-77-7-
D|--4-44-44-44-4-7-77-77-77-7-4-44-44-44-4-7-77-77-77-7-
A|--2-22-22-22-2-5-55-55-55-5-2-22-22-22-2-5-55-55-55-5-
E|------------------------------------------------------
You've got to go with the motion, oh
Can you feel it in your bones?

stalk_on
Posts: 4
Joined: Mon May 17, 2010 2:15 pm

Re: The Presidential Suite

Postby stalk_on » Mon May 17, 2010 2:32 pm

This, along with others posted by "the futile," was tabbed by me about 5 years ago, for my now-defunct SA site, "Stalk On."

Conversely, Steve_O gave credit on my Signal the Rifleman tab. Appreciated.


Return to “Other”

Who is online

Users browsing this forum: No registered users and 1 guest