Page 1 of 1

All This Fashion

Posted: Tue Nov 09, 2010 8:39 pm
by oib111
Does anybody have a tab by this? If you haven't heard it and are interested here's the link: http://www.youtube.com/watch?v=9pDt1HPwVVo

Re: All This Fashion

Posted: Tue Dec 21, 2010 1:33 am
by oib111
Anybody?

Re: All This Fashion

Posted: Sun Oct 11, 2015 8:36 pm
by GingerAle
Anybody??

Re: All This Fashion

Posted: Mon Oct 19, 2015 7:01 pm
by Norgan
This one's a bit tricky to tab out because the main instrument is a piano. I just made a kind of acoustic guitar arrangement for it that I feel works pretty well.

I used some more simple chords to kind of emulate the sound of the original song's piano. Also, you can fiddle with a few strings while strumming (hammer ons and such) to get a bit of a bouncy rhythm happening, kind of makes it sound like the lead guitar as well. Works best with messing around on the D string, I found. Have fun playing around with it!

Code: Select all

[Intro/Verse]

e|-3-------------------------------3--------------------------------|
B|-3-------------------------------3--------------------------------|
G|-0-------------------------------2--------------------------------|
D|-0-------------------------------0--------------------------------|
A|------------------------------------------------------------------|
D|-3-------------------------------2--------------------------------|
   All the pretty boys you         call, won't leave you warm    at

e|-3-------------------------------3--------------------------------|
B|-3-------------------------------3--------------------------------|
G|-2-------------------------------0--------------------------------|
D|-2-------------------------------2--------------------------------|
A|-0-------------------------------3--------------------------------|
D|------------------------------------------------------------------|
   all, when winter hits the       fall.



[Chorus]

e|-3-------------------------------3--------------------------------|
B|-3-------------------------------3--------------------------------|
G|-2-------------------------------0--------------------------------|
D|-2-------------------------------2--------------------------------|
A|-0-------------------------------3--------------------------------|
D|------------------------------------------------------------------|
   Oh                     I'll be around                       when

e|-3---------------3---------------3--------------------------------|
B|-3---------------3---------------3--------------------------------|
G|-0---------------2---------------0--------------------------------|
D|-2---------------0---------------2--------------------------------|
A|-2-------------------------------3--------------------------------|
D|-0----------------------------------------------------------------|
   all this...     fashion...      down                          to

e|-3-------------------------------3--------------------------------|
B|-3-------------------------------3--------------------------------|
G|-2-------------------------------2--------------------------------|
D|-2-------------------------------0--------------------------------|
A|-0----------------------------------------------------------------|
D|---------------------------------2--------------------------------|
   pick your pretty                heart right off the ground