I Want To Know Your Plans

User avatar
steveo
Moderator
Posts: 89
Joined: Sat Aug 02, 2008 4:46 pm

I Want To Know Your Plans

Postby steveo » Sun Aug 03, 2008 1:01 am

Max MTV Acoustic Version

Code: Select all

Say Anything
"I Want To Know Your Plans" (Acoustic)
Tabbed by: Peter Z. Ali
Email: pza151@stu.aii.edu
Corrections by: Scott Rome

------>>>>>>>     This tab is from the acoustic set he plays on mtvLIVE.COM
you can find these songs to play along with at

http://www.mtv.com/music/#/music/live/detail.jhtml?contentId=1525316

FIGURE OUT RHYTHM FOR YOURSELF at above link

Tuning:Normal


  {INTRO} [he really plays it like this except for all opens on A are
           ACTUALLY played on the 5th fret oF E {which is a.k.a A}]
e|---------------------------------------------------------------------------|
B|---------------------------------------------------------------------------|
G|------0----------0-----------0----------0----------------------------------|
D|------------------------0----------0---------------(repeat as necessary)---|
A|---------0-0-2-3----3-3---2----2-2---0----0--------------------------------|
E|---3-----------------------------------------5/7\5-------------------------|
 
 AFTER HE PLUCKS THESE NOTES, HE STRUMS THEM IN A FREESTYLE SORT OF PATTERN,
  PLAY AROUND AND YOU'LL PICK IT UP

e|----------------------------------------------------x-------------x--------|
B|----------------------------------------------------x-------------0--------|
G|----------------------------------------------------5-------------5--------|
D|------4-4-----4-X-4-H-5---(REPEAT 5 MORE TIMES)-----5-------------4--------|
A|------5-5--3--5-X-5---------------------------------x-------------5--------|
E|---3------------------------------------------------5-------------x--------|
 
  I want to know              your plans..............WILL I be for-given?

e|----------------------------------------------------------------------------|
B|----------------------------------------------------------------------------|
G|-------5-5-5---5-5-5---5-5-5---7-7-7----------------------------------------|
D|-------5-5-5---5-5-5---5-5-5---5-5-5---------------5-5-------5-5--5------5--|
A|-------0-0-0---2-2-2---3-3-3---5-5-5-------------------0-2-3-3-3--2-0----5--|
E|-----------------------------------------------3----------------------3--3--|

IFYOUWANT ROSES         then go buy a bouquet

e|-----------------------------------------------0-------0-------------------|
B|-----------------------------------------------0-------0-------------------|
G|-------5-5-5---5-5-5---5-5-5---7-7-7-----------7---7---7-------------------|
D|-------5-5-5---5-5-5---5-5-5---5-5-5-----------5---5---5-------------------|
A|-------0-0-0---2-2-2---3-3-3---5-5-5-----------7---5---7-------------------|
E|-----------------------------------------------x-------x-------------------|

justwont cut it         than what can I say

e|-----x-----------------0---------x-----------------------------------------|
B|-----x-----------------0---------x-----------------------------------------|
G|-----7-----------------7---------7-------------------5--4---4--------------|
D|-----5-----------------5---------5-------------------5--5---7--------------|
A|-----3-----------------7---------5-------------------x--x---x--------------|
E|-----3-----------------0---------x-------------------5--5---5--------------|

  *Your whatkeepsme be ...lievin....the worldsnotgone...dead

*go to link at top of page, you will enjoy it and it will help you find the
rhythm for these chords

e|-----x-----------------0---------x-----------------------------------------|
B|-----x-----------------0---------x-----------------------------------------|
G|-----7-----------------7---------7-------------------5--4---4--------------|
D|-----5-----------------5---------5-------------------5--5---7--------------|
A|-----3-----------------7---------5-------------------x--x---x--------------|
E|-----3-----------------0---------x-------------------5--5---5--------------|

       Strength inmy.....bones.....words in     my     head

e|-----x-----------------0---------x-----------------------------------------|
B|-----x-----------------0---------x-----------------------------------------|
G|-----7-----------------7---------5-----5---5-------------------------------|
D|-----5-----------------5---------5-----5---5-------------------------------|
A|-----3-----------------7---------3-----0---3-------------------------------|
E|-----3-----------------0---------3-----------------------------------------|

they   pour out to ......paper     its  all  for you

e|----------------------------------------------------x-------------x--------|
B|----------------------------------------------------x-------------0--------|
G|----------------------------------------------------5-------------5--------|
D|------4-4-----4-X-4-H-5---(REPEAT 5 MORE TIMES)-----5-------------4-------|
A|------5-5--3--5-X-5---------------------------------x-------------5--------|
E|---3------------------------------------------------5-------------x--------|

   i want to know     your   fears            Heart stay    here?

e|----------------------------------------------------------------------------|
B|----------------------------------------------------------------------------|
G|-------5-5-5---5-5-5---5-5-5---7-7-7----------------------------------------|
D|-------5-5-5---5-5-5---5-5-5---5-5-5---------------5-5-------5-5--5------5--|
A|-------0-0-0---2-2-2---3-3-3---5-5-5-------------------0-2-3-3-3--2-0----5--|
E|-----------------------------------------------3----------------------3--3--|

could forgive me      forbeing so     brash


e|-----------------------------------------------0-------0-------------------|
B|-----------------------------------------------0-------0-------------------|
G|-------5-5-5---5-5-5---5-5-5---7-7-7-----------7---7---7-------------------|
D|-------5-5-5---5-5-5---5-5-5---5-5-5-----------5---5---5-------------------|
A|-------0-0-0---2-2-2---3-3-3---5-5-5-----------7---5---7-------------------|
E|-----------------------------------------------x-------x-------------------|

meorwhip  me         I'd savour     each lash

e|-----x-----------------0---------x-----------------------------------------|
B|-----x-----------------0---------x--------------------------------(repeat--|
G|-----7-----------------7---------7-------------------5--4---4------for-----|
D|-----5-----------------5---------5-------------------5--5---7-----rest-of--|
A|-----3-----------------7---------5-------------------x--x---x------chorus)-|
E|-----3-----------------0---------x-------------------5--5---5--------------|

  *Your whatkeepsme be ...lievin....the worldsnotgone...dead

*go to link at top of page, you will enjoy it and it will help you find the
rhythm for these chords

e|-----x-----------------0---------x-----------------------------------------|
B|-----x-----------------0---------x-----------------------------------------|
G|-----7-----------------7---------7-------------------5--4---4--------------|
D|-----5-----------------5---------5-------------------5--5---7--------------|
A|-----3-----------------7---------5-------------------x--x---x--------------|
E|-----3-----------------0---------x-------------------5--5---5--------------|

       Strength inmy.....bones.....words in     my     head

e|-----x-----------------0---------x-----------------------------------------|
B|-----x-----------------0---------x-----------------------------------------|
G|-----7-----------------7---------5---------5-------------------------------|
D|-----5-----------------5---------5---------5-------------------------------|
A|-----3-----------------7---------3-----0---3-------------------------------|
E|-----3-----------------0---------3-----------------------------------------|

they   pour out to ......paper     its  all  for you

e|--3-3-3--3-3-3-----3-3-3--3--3---u-3-s-----3-3-3--3-3-3-----3-3-3----------|
B|--3-3-3--3-3-3-----3-3-3--3--3---p-3-t-----3-3-3--3-3-3-----3-3-3----------|
G|--x-x-x--x-x-x-----0-0-0--0--0-----x-r-----0-0-0--0-0-0-----0-0-0----------|
D|--2-2-2--2-2-2-----2-2-2--2--2-----0-o-----2-2-2--2-2-2-----0-0-0----------|
A|--2-2-2--2-2-2-----0-0-0--0--0-----2-k-----3-3-3--3-3-3-----2-2-2----------|
E|--0-0-0--0-0-0-----x-x-x--x--x-----0-e-----x-x-x--x-x-x-----3-3-3--2-3-2---|

         no more..fighting  this  is.....only awasteofour  time

e|--3-3-3--3-3-3-----3-3-3--3--3---u-3-s-----3-3-3--3-3-3-----x------x-------|
B|--3-3-3--3-3-3-----3-3-3--3--3---p-3-t-----3-3-3--3-3-3-----x------x-------|
G|--x-x-x--x-x-x-----0-0-0--0--0-----x-r-----0-0-0--0-0-0-----4------4-------|
D|--2-2-2--2-2-2-----2-2-2--2--2-----0-o-----0-0-0--0-0-0-----5------5-------|
A|--2-2-2--2-2-2-----0-0-0--0--0-----2-k-----3-3-3--3-3-3-----4------3-------|
E|--0-0-0--0-0-0-----x-x-x--x--x-----0-e-----x-x-x--x-x-x-----x--------------|

         causesoon...leavin'   will  this    strength...... mine hi hi hine

e|---------------------------------------------------------------------------|
B|---------------------------------------------------------------------------|
G|---4H5P4-------------------------------------------------------------------|
D|---------5/7\5--------------------(PLAY BEGGINING/INTRO SEGMENT)----------|
A|---------------5/7\5-------------------------------------------------------|
E|---------------------5/7\5--3----------------------------------------------|


e|-----------------------------------------------------------------------------|
B|-----------------------------------------------------------------------------|
G|-------------------------------------------------------------5-5-5---5-5-5-5-|
D|----5--5---5-5-5-5-5-5--5-5-5--(repeat-2 more times)--5-5-5--5-5-5---5-5-5-5-|
A|----x--0--/3-3-2-2-0-0-0-0----------------------------5-5-5--0-0-0---2-2-2-2-|
E|----3-------------------------------------------------3-3-3------------------|

     ILL be there for you               TILL I ROT! (crescendo)

e|-----x-----------------0---------x-----------------------------------------|
B|-----x-----------------0---------x-----------------------------------------|
G|-----7-----------------7---------7-------------------5--4---4--------------|
D|-----5-----------------5---------5-------------------5--5---7--------------|
A|-----3-----------------7---------5-------------------x--x---x--------------|
E|-----3-----------------0---------x-------------------5--5---5--------------|

  *Your whatkeepsme be ...lievin....the worldsnotgone...dead

*go to link at top of page, you will enjoy it and it will help you find the
rhythm for these chords

e|-----x-----------------0---------x-----------------------------------------|
B|-----x-----------------0---------x-----------------------------------------|
G|-----7-----------------7---------7-------------------5--4---4--------------|
D|-----5-----------------5---------5-------------------5--5---7--------------|
A|-----3-----------------7---------5-------------------x--x---x--------------|
E|-----3-----------------0---------x-------------------5--5---5--------------|

       Strength inmy.....bones.....words in     my     head

e|-----x-----------------0---------x-----------------------------------------|
B|-----x-----------------0---------x-----------------------------------------|
G|-----7-----------------7---------5-----5---5-------------------------------|
D|-----5-----------------5---------5-----5---5-------------------------------|
A|-----3-----------------7---------3-----0---3-------------------------------|
E|-----3-----------------0---------3-----------------------------------------|

they   pour out to ......paper     its  all  for you

 
ANDY QUESTIONS OR COMMENTS PLLLLLEASE EMAIL ME


| /  slide up
| \  slide down
| h  hammer-on
| p  pull-off
| ~  vibrato
| +  harmonic
| x  Mute note
Image
Oh, I'll be around to pick your pretty heart right off the ground when all this
fucking fashion brings you down.
http://www.purevolume.com/stevearuilioistheman

User avatar
What Say You
Posts: 15
Joined: Thu Aug 07, 2008 10:18 pm
Location: Caro, MI
Contact:

Re: I Want To Know Your Plans

Postby What Say You » Sun Aug 10, 2008 9:30 am

Image

"Milk Was a Bad Choice"

User avatar
steveo
Moderator
Posts: 89
Joined: Sat Aug 02, 2008 4:46 pm

Re: I Want To Know Your Plans

Postby steveo » Sun Aug 10, 2008 1:53 pm

I really enjoyed that nice job
Image
Oh, I'll be around to pick your pretty heart right off the ground when all this
fucking fashion brings you down.
http://www.purevolume.com/stevearuilioistheman

User avatar
the futile
Posts: 63
Joined: Sun Aug 10, 2008 7:56 pm

Re: I Want To Know Your Plans

Postby the futile » Sun Aug 10, 2008 11:23 pm

another way to play; its not really showing right though.

Code: Select all

Intro(x2):                                                     
e|--------------------------------|-------------|-----x-----------------------|
B|--------------------------------|-------------|-----0-----------------------|
G|--------------------------------|-------------|-----4-----------------------|
D|----5---------5----5---5----5---|--5----------|-----5-----------------------|
A|--------0-2-3---33---2---22-----|-------------|-----x-----------------------|
E|--3---3-----------------------5-|----5-5/7\5--|---5-5-----------------------|
Alternate between the two seperated endings.         <upstroke>

INTRO2
E|-------------------------------------------
B|--0~~-1--3-5~~-5-5-7-3~~-3-3-5-1~~-1-1h3p1-
G|-------------------------------------------
D|-------------------------------------------
A|------0--2-3~~-3-3-5-2~~-2-2-3-0~~-0~------
E|--3~~--------------------------------------

E|---------------------------------------------------
B|--0~~-1--3-5~~-5-5-7-3~~-3-3-5-1~~-1~~-3-1-0-1-0---
G|-------------------------------------------------2-
D|---------------------------------------------------
A|------0--2-3~~-3-3-5-2~~-2-2-3-0~~-0~~-0~~~~~~~~~~-
E|--3~~----------------------------------------------

Max plays this again, except strumming all the chords your hands should make
if your fingers are on those strings alone.

Verse(firstpartx6):
e|-------------------|--------------------------------------------------------|
B|-------------------|--------------------------------------------------------|
G|-------------------|--555555--5~---5----------------------------------------|
D|----4-4----4444----|--555555--4~--4-----------------------------------------|
A|----5-5--3-5555----|--xxxxxx-5~-5------------------------------------------|
E|--3----------------|--555555------------------------------------------------|
              ^ ^middle and last ones are an upstrokes

Prechorus(x2):
e|-------------------------|--------------------|--0--x--0--------------------|
B|-------------------------|--------------------|--0--x--0--------------------|
G|--5-5-5--5-5-5-5-5-5-5~--|--4--------------4--|--7--7--7--------------------|
D|--5-5-5--5-5-5-5-5-5-5~--|--5-5-5-5-5-5-5--5--|--5--5--5--------------------|
A|--0-0-0--2-2-2/3-3-3-3~--|--x-0-2-3-3-2-x--x--|--7--5--7--------------------|
E|-------------------------|--3-----------5--3--|--x--x--x--------------------|
                           | alternate between these like before.

Chorus(x4):
e|--xxxx--xxxx--xxxx---------|------------------------------------------------|
B|--xxxx--xxxx--xxxx---------|------------------------------------------------|
G|--7777--7777--7777--5-4-4--|-----4--5---------------------------------------|
D|--5555--5555--5555--5-5-7--|--5--5--5---------------------------------------|
A|--3333--7777--5555--x-x-x--|--5--x--3---------------------------------------|
E|--xxxx--xxxx--xxxx--5-5-5--|--3--3------------------------------------------|
                             |this last part comes after the second chord,
                             |and only on the fourth time, eighth too, later.

After this, Max plays all of those again, and then continues with:

Bridge:          U                                U
e|-3333333-3333333-3333333-333-------333333-3333333-3333-0000--0--------------|
B|-3333333-3333333-3333333-333-------333333-3333333-3333-0000--0--------------|
G|-0000000-0000000-0000000-000-------000000-0000000-0000-4444--4--------------|
D|-xxxxxxx-222222x-xxxxxxx-000-------xxxxxx-222222x-xxxx-5555--5--------------|
A|-2222222-0000002-3333333-xxx-------222222-0000002-3333-4444--3--------------|
E|-0000000-xxxxxx0-xxxxxxx-333-2-3-2-000000-xxxxxx0-xxxx-xxxx--x--------------|

Max plays a solo..
Solo:
e|----------------------------------------------------------------------------|
B|----------------------------------------------------------------------------|
G|--4h5p4---------------------------------------------------------------------|
D|--------5/7\5---------------------------------------------------------------|
A|--------------5/7\5---------------------------------------------------------|
E|--------------------5/7\5---------------------------------------------------|
Max goes from this straight into the intro again, and then plays:

Outro(x4):
e|-------------------------|--------------------------------------------------|
B|-------------------------|--------------------------------------------------|
G|-4-----------------------|--------------------------------------------------|
D|-5--5-5-555-5-555-5-555--|--555-555--555-5~---------------------------------|
A|-x--2-3-333-2-222-3-333--|--xxx-xxx--222-3~---------------------------------|
E|-3----------------5-555--|--333-555-----------------------------------------|
                           |ends the fourth time with this

Now he plays the chorus and the intro again.
he ends with this:
e|----------------------------------------------------------------------------|
B|----------------------------------------------------------------------------|
G|----------------------------------------------------------------------------|
D|---5-5-5-5-5-5--5-5-5--5-5-5--5~--------------------------------------------|
A|--3-2---3-2-----3-2-x--3-2-x--5~--------------------------------------------|
E|------5-----5-------5------5--3~--------------------------------------------|

You've got to go with the motion, oh
Can you feel it in your bones?


Return to “...Is A Real Boy”

Who is online

Users browsing this forum: No registered users and 1 guest