Admit It!!!

User avatar
steveo
Legend
Posts: 89
Joined: Sat Aug 02, 2008 4:46 pm

Admit It!!!

Postby steveo » Sun Aug 03, 2008 1:03 am

Say Anything Spin Acoustic Version

Code: Select all

Say Anything
"Admit it!"
Tabbed by:azimuth457
Email:azimuth457@gmail.com

Live acoustic version performed on Spinhouse Live, viewable on youtube.
Played with three guitars and a keyboard.
I found it easiest to tab out one guitar, but for other things, i couldn't
always tell who was playing what.

watch them play it here: http://youtube.com/watch?v=_DTfbIRAH-A

Tuning: Standard

Intro: Guitar 1
e|---------------------------------------4-----------------------------------|
B|-----4-4----4-4----4-4--------------4---4--------------------------4-4-----|
G|-----4-4----4-4----4-4--------------4------------------------------4-4-----|
D|-----------------------------------------6---------------------------------|
A|---------------------------------------------------------------------------|
E|-4-------------------------------------------------------------------------|

Intro: Guitar 2
e|---------------------------------------------------------------------------|
B|-----4-4----4-4----4-4---------------------------------------------4-4-----|
G|-----4-4----4-4----4-4---------------------------------------------4-4-----|
D|---------------------------------------------------------------------------|
A|---------------------------------------------------------------------------|
E|-4-------------------------------------------------------------------------|

Intro: Keyboard(on guitar)(this continues through "verse")
e|---------------------------------------------------------------------------|
B|---------------------------------------------------------------------------|
G|------------8-8---------8-8------------------------------------------------|
D|---6-9-8--------------------------<Repeat----------------------------------|
A|---------9-------6-9-------------------------------------------------------|
E|---------------------9-----------------------------------------------------|

Verse 1: Guitar 1 and 2
e|---------------------------------------------------------------------------|
B|---------------------------------------------------------------------------|
G|---------------------------------------------------------------------------|
D|-------------8-8888-6---6-6666-4---8-8888-6--[Gtr1]----6-6666-4-444444-----|
A|--6-6666-4---6-6666-4---6-6666-4---6-6666-4-[4/6-4-2]--6-6666-4-444444-----|
E|--4-4444-2--------------4-4444-2-----------------------4-4444-2-222222-----|

e|---------------------------------------------------------------------------|
B|---------------------------------------------------------------------------|
G|---------------------------------------------------------------------------|
D|--8-8888-6-666666---6-6666-4-444444---8-8888-6-666666----------------------|
A|--6-6666-4-444444---6-6666-4-444444---6-6666-4-444444----------------------|
E|--------------------4-4444-2-222222----------------------------------------|

Prechorus: All guitars.
e|----0---0---0---0---0---0--|-0-|-<strum after)------------------------|
B|----0---0---0---0---0---0--|-0-|--------------------------------------|
G|----1---1---1---1---1---1--|-1-|------------------------44444---------|
D|----2---2---2---2---2---2--|-2-|----44---44---44---44---44444---------|
A|----2---2---2---2---2---2--|-2-|--2-22-2-22-2-22-2-22-2-22222---------|
E|--0-0-0-0-0-0-0-0-0-0-0-0--|-0-|--4-44-4-44-4-44-4-44-4---------------|

Verse 2: Guitar 1
e|---------------------------------------------------------------------------|
B|---------------------------------------------------------------------------|
G|---------------------------------------------------------------------------|
D|----------------------------4----------------------------------------------|
A|--4/6-4-------4/6-4--4--4/6---6-4------------2-4-4/6-4-4h6-4---------------|
E|-------7-4-2-------7--------------7-4-2---2h4------------------------------|

e|---------------------------------------------------------------------------|
B|---------------------------------------------------------------------------|
G|---------------------------------------------------------------------------|
D|------4--------------4------------4----------------------------------------|
A|--4/6--6-4-------4/6--6-4--4--4/6---6-4------------2-4/6-4/6-4-4h6-4-------|
E|----------7-4-2-----------7-------------7-4-2---2h4------------------------|

Verse 2: Guitar 2(repeats)
e|---------------------------------------------------------------------------|
B|---------------------------------------------------------------------------|
G|---------------------------------------------------------------------------|
D|---------------------------------------------------------------------------|
A|----------------6----4-----------------------6-------4-4h6-4---------------|
E|--4--------2------------4-------------2------------------------------------|

Verse 2: Guitar 2 cont. (guitar 1 is the same here)
e|---------------------------------------------------------------------------|
B|---------------------------------------------------------------------------|
G|---------------------------------------------------------------------------|
D|-----------------8-8888-6--------6-6666-4--------8-8888-6------------------|
A|--6-6666-4----2--6-6666-4-4h6-4--6-6666-4----2---6-6666-4--4/6-4-2---------|
E|--4-4444-2-2h4-------------------4-4444-2-2h4------------------------------|

e|---------------------------------------------------------------------------|
B|---------------------------------------------------------------------------|
G|---------------------------------------------------------------------------|
D|--6-6666-4-444444---8-8888-6-666666---6-6666-4-444444---8-8888-6-666666----|
A|--6-6666-4-444444---6-6666-4-444444---6-6666-4-444444---6-6666-4-444444----|
E|--4-4444-2-222222---------------------4-4444-2-222222----------------------|

Play Prechorus again, ending it early for the Chorus.

Chorus: Guitar 1       | Guitar 2  (strumming patterns not shown)
e|---x---x---x---x--x--|------------------------|
B|---5---4---x---2--x--|------------------------|
G|---4---4---4---x--4--|---9---8---4---3--------|
D|---x---x---4---4--4--|---9---9---4---4--------|
A|---2---2---x---x--x--|---x---x---x---x--------|
E|---x---x---4---4--4--|---9---7---4---2--------|

the second time through, and in the repeat of the chorus,
both guitars play what guitar 1 is playing.

and for Verse 3, the power chord part is the same as the first time,
but before that it goes like this:

Verse 3: Guitar 1
e|--4-4-------4-4-------4-4-------4-4-------4--------------------------------|
B|--4--4------4--4------4--4------4--4------4--------------------------------|
G|--5---5-----5---5-----5---5-----5---5-----5--------------------------------|
D|--6----6----6----6----6----6----6----6----6--------------------------------|
A|--------------------------------------------------2-4/6-4/6-4-4h6-4--------|
E|--------4---------4---------4---------4--------2h4-------------------------|

e|---------------------------------------------------------------------------|
B|---------------------------------------------------------------------------|
G|--5---------5---------5---------5---------5--------------------------------|
D|--6---------6---------6---------6---------6--------------------------------|
A|--x---------x---------x---------x---------x-------2-4/6-4/6-4-4h6-4--------|
E|--4---------4---------4---------4---------4----2h4-------------------------|

Chorus goes again, ending with 2x43xx i think, easy to figure out
but next comes the,

Solo: Guitar 2(the end is faster but i needed to show the 11s)
e|---------------------------------------a few times more--------------------|
B|--------------------------------------------|----|-------------------------|
G|--44-3-44-3-44-3-44-6-44-3-44-6-88-6-44-3-44-3-44-3-44-6-88-11-11-11-11----|
D|--44-4-44-4-44-4-44-4-44-4-44-4-66-4-44-4-44-4-44-4-44-4-66----------------|
A|-------------------------------------------------------------9--9--9--9----|
E|---------------------------------------------------------------------------|


Outro: guitar 1(strumming pattern not shown)
e|---------|------------------------------------------------------------------|
B|---------|------------------------------4-222-4-222-4-222-4-222-------------|
G|--4--3---|--4------------------------3---------------------------3----------|
D|--4--4---|--4------------------------4---------------------------4----------|
A|--x--x---|--x------------------------x---------------------------x----------|
E|--4--2---|--4------------------------2---------------------------2----------|

Guitar 2: at first he only strums the second chord once.
e|---------|------------------------------------------------------------------|
B|---------|------------------------------------------------------------------|
G|--4--3---|---------------------------3---------------------------3----------|
D|--4--4---|---------------------------4---------------------------4----------|
A|--x--x---|--6-444-6-444-6-444-6-444--x--6-444-6-444-6-444-6-444--x----------|
E|--4--2---|---------------------------2---------------------------2----------|

sometimes only one of them is playing a chord, and
the second part of the outro comes at the line "so youve come to me, made of these.."
and then continues normally.


| /  slide up
| \  slide down
| h  hammer-on
| p  pull-off
| ~  vibrato
| +  harmonic
| x  Mute note
Image
Oh, I'll be around to pick your pretty heart right off the ground when all this
fucking fashion brings you down.
http://www.purevolume.com/stevearuilioistheman

User avatar
Scott
Legend
Posts: 540
Joined: Sat Aug 02, 2008 11:33 am
Location: Maryland
Contact:

Re: Admit It!!!

Postby Scott » Sun Aug 03, 2008 11:02 pm

Album Version

Code: Select all

Say Anything
"Admit It!!!"
Tabbed by: Ara Yessayan


Gtr I (E A D G B E) - 'dist1'
Gtr II (E A D G B E) - 'dist2'
Gtr III (E A D G B E) - 'clean1'
Gtr IV (E A D G B E) - 'Acoustic'
Gtr V (E A D G B E) - 'keyz'
Gtr VI (B E A D G B) - 'Pianoez!'

 Admit It!!!              Verse
  Moderate Rock Q=100
  G#m
 4/4
  Gtr I
              >
  W          +W            +H         E  E E E
|----------|------------||---------------------|
|----------|------------||---------------4---4-|
|----------|------------||---------------4---4-|
|-1--------|-(1)--------||-(1)-----------------|
|-2--------|-(2)--------||-(2)-----------------|
|-4--------|-(4)--------||-(4)-----------------|
|
| Gtr V
| W           W             e  e e E +E  e e e
|----------|------------||---------------------|
|----------|------------||---------------------|
|----------|------------||---------------8---8-|
|----------|------------||--6--9-8-------------|
|----------|------------||---------9-(9)-------|
|----------|------------||---------------------|
|
| Gtr II
|             >
| W          +W            +W
|----------|------------||---------------------|
|----------|------------||---------------------|
|----------|------------||---------------------|
|-1--------|-(1)--------||-(1)-----------------|
|-2--------|-(2)--------||-(2)-----------------|
|-4--------|-(4)--------||-(4)-----------------|


  H      E E E E   H        E  E E E   W
|----------------|-------------------|-----------------|
|----------4---4-|-------------4---4-|-----------------|
|----------4---4-|-------------4---4-|-----------------|
|----------------|-------------------|-----------------|
|----------------|-------------------|-----------------|
|----------------|-------------------|-----------------|
|
| q  e Q   e e e   e e e E +E  e e e   q  e Q  e e e
|----------------|-------------------|-----------------|
|----------------|-------------------|-----------------|
|----------8---8-|-------------8---8-|---------8---8---|
|----------------|-6-9-8-------------|-----------------|
|-6--9-----------|-------9-(9)-------|-6--9------------|
|------9---------|-------------------|------9----------|
|
| W                W                   W
|----------------|-------------------|-----------------|
|----------------|-------------------|-----------------|
|----------------|-------------------|-----------------|
|----------------|-------------------|-----------------|
|----------------|-------------------|-----------------|
|----------------|-------------------|-----------------|


  G#m
  Gtr III
   >
   W                   +H       +E  E  E   E
|-^4-----------------|-(4)------(4)-4-(4)-(4)-|
|-^4-----------------|-(4)------(4)----4--(4)-|
|-^4-----------------|-(4)------(4)--------4--|
|-^6-----------------|-(6)------(6)-----------|
|--------------------|------------------------|
|--------------------|------------------------|
|
|  e e e E +E  e e e    q   e Q     e  e   e
|--------------------|------------------------|
|--------------------|------------------------|
|--------------8---8-|--------------8------8--|
|--6-9-8-------------|------------------------|
|--------9-(9)-------|--6---9-----------------|
|--------------------|--------9---------------|


                                 Gtr I
   >
   W                    H      E E E E
|-(4)-----------------|----------4---4-|
|-(4)-----------------|----------4---4-|
|-(4)-----------------|----------4---4-|
|--6------------------|----------6---6-|
|---------------------|----------6---6-|
|---------------------|----------4---4-|
|
|  e  e e E +E  e e e   q  e Q   e e e
|---------------------|----------------|
|---------------------|----------------|
|---------------8---8-|----------8---8-|
|--6--9-8-------------|----------------|
|---------9-(9)-------|-6--9-----------|
|---------------------|------9---------|


  G#5   F#5           D#5   C#5         G#5   F#5           D#5   C#5
  E E E E  H          E E E E H         E E E E  H          E E E E E S S E E
|-------------------|-----------------|-------------------|--------------------|
|-------------------|-----------------|-------------------|--------------------|
|-------------------|-8-8-8-6---------|-------------------|-8-8-8-6------------|
|-6-6-6-4-----------|-8-8-8-6---------|-6-6-6-4-----------|-8-8-8-6------------|
|-6-6-6-4-----------|-6-6-6-4---------|-6-6-6-4-----------|-6-6-6-4---4h6p4-2--|
|-4-4-4-2-----------|-----------------|-4-4-4-2-----------|--------------------|
|
| e e e E +E  e e e   q   e Q   e e e   e e e E +E  e e e   q   e Q   e   e e
|-------------------|-----------------|-------------------|--------------------|
|-------------------|-----------------|-------------------|--------------------|
|-------------8---8-|-----------8---8-|-------------8---8-|-----------8-----8--|
|-6-9-8-------------|-----------------|-6-9-8-------------|--------------------|
|-------9-(9)-------|-6---9-----------|-------9-(9)-------|-6---9--------------|
|-------------------|-------9---------|-------------------|-------9------------|


  G#5         F#5           D#5     C#5
      |3| |3|                   |3|
  E E E S E S  E  E E S S   E E E S E E S S E E
|-------------------------|---------------------|
|-------------------------|---------------------|
|-------------------------|-8-8-8-x-6-6-6s8s6-4-|
|-6-6-6-x-x-x--4--4-4-x-x-|-8-8-8-x-6-6---------|
|-6-6-6-x-x-x--4--4-4-x-x-|-6-6-6-x-4-4-4s6s4-2-|
|-4-4-4-x-x-x--2--2-2-x-x-|---------------------|
|
| e e e   E   +E  e e e     q   e   Q   e   e e
|-------------------------|---------------------|
|-------------------------|---------------------|
|-----------------8---8---|-------------8-----8-|
|-6-9-8-------------------|---------------------|
|---------9---(9)---------|-6---9---------------|
|-------------------------|---------9-----------|


  G#m     F#              D#5   C#5   D#C#B5
                                    Gtrs I, II
                |3| |3|
  E E S S E E E E S E S   E E E E E S S E E
|-----------------------|--------------------||
|---4-------2-----------|--------------------||
|---4-------3-----------|-8-8-8-6-6-6s8s6-4--||
|-6-6-6-x-4-4-4-4-4-4-4-|-8-8-8-6-6-6s8s6-4--||
|-6-6-6-x-4-4-4-4-4-4-4-|-6-6-6-4-4-4s6s4-2--||
|-4-4-4-x-2-2-2-2-2-2-2-|--------------------||
|
| e e e   E e e e   E     q   e Q   e   e e
|-----------------------|--------------------||
|-----------------------|--------------------||
|-----------8---8-------|-----------8---8-8--||
|-6-9-8-----------------|--------------------||
|---------9-------------|-6---9--------------||
|-----------------------|-------9------------||


   Pre-Chorus
    E5                                            F#C#sus2/G#
    E E +E  E +E  E +E  E   +E  E +E  E +E  E S S S  S
||------------------------|-----------------------------|
||o---0-(0)-0-(0)-0-(0)-0-|-(0)-0-(0)-0-(0)-0-----------|
||----4-(4)-4-(4)-4-(4)-4-|-(4)-4-(4)-4-(4)-4-------(6)-|
||--2-2-(2)-2-(2)-2-(2)-2-|-(2)-2-(2)-2-(2)-2-2-2-4--6--|
||o-2-2-(2)-2-(2)-2-(2)-2-|-(2)-2-(2)-2-(2)-2-2-2-4--6--|
||--0-0-(0)-0-(0)-0-(0)-0-|-(0)-0-(0)-0-(0)-0-0-0-2--4--|
|
|   Gtr III
|   E E  E  E  E  E  E  E    E  E  E  E  E  E S S S  S
||----0-----0-----0-----0-|-----0-----0-----0-----------|
||o---0-----0-----0-----0-|-----0-----0-----0-----------|
||----4-----4-----4-----4-|-----4-----4-----4-------(6)-|
||--2-2--2--2--2--2--2--2-|--2--2--2--2--2--2-2-2-4--6--|
||o-2-2--2--2--2--2--2--2-|--2--2--2--2--2--2-2-2-4--6--|
||--0----0-----0-----0----|--0-----0-----0----0-0-2--4--|


            F#G#m           F#G#m             F#G#m           B5
  +E   e  E S  S  +E   e  E S  S    +E   e  E S  S  +S   S  S S S S E
|---------------------------------|------------------------------------||
|---------------------------------|-----------------------------------o||
|-(6)-(6)-----(4)-(4)-(4)-----(4)-|-(4)-(4)-----(4)-(4)-(4)---4-4-4-4--||
|-(6)--6----4--6--(6)--6----4--6--|-(6)--6----4--6--(6)--6--6-4-4-4-4--||
|-(6)--6----4--6--(6)--6----4--6--|-(6)--6----4--6--(6)--6--6-2-2-2-2-o||
|-(4)--4----2--4--(4)--4----2--4--|-(4)--4----2--4--(4)--4--4----------||
|
| +E   e  E S  S  +E   e  E S  S    +E   e  E S  S  +S   S  S S S S E
|---------------------------------|------------------------------------||
|---------------------------------|-----------------------------------o||
|-(6)-(6)-----(4)-(4)-(4)-----(4)-|-(4)-(4)-----(4)-(4)-(4)---4-4-4-4--||
|-(6)--6----4--6--(6)--6----4--6--|-(6)--6----4--6--(6)--6--6-4-4-4-4--||
|-(6)--6----4--6--(6)--6----4--6--|-(6)--6----4--6--(6)--6--6-2-2-2-2-o||
|-(4)--4----2--4--(4)--4----2--4--|-(4)--4----2--4--(4)--4--4----------||


 Verse
  G#m       F#5   N.C.            G#m/B       F#/A#
  Gtr I
  S S E +E  E +H            S S E +E   E  +H
|-------------------------|-------------------------------|
|-------------------------|-------------------------------|
|-------------------------|-------------------------------|
|-------------------------|-------------------------------|
|-6s4---------------------|-6s4--------4--(4)-------------|
|-----4-(4)-2-(2)---------|-----4-(4)---------------------|
|
|                                             |3| |3| |3|
| q      E  E +E  E +E  E   S S E  E   E   E  E S E S E S
|--------4----------------|--------4----------2-2-2-2-2-2-|
|--------4----------------|--------4----------2-2-2-2-2-2-|
|--------4--------3-(3)-3-|--------4----------3-3-3-3-3-3-|
|-6------6--4-(4)---------|-------------------------------|
|-6---------4-(4)---------|-4s6-6-----(2)--4--------------|
|-4---------2-(2)---------|-------------------------------|


  G#m       F#5   N.C.                G#m/B     F#/A#
  S S E +E  H           S S   E   E a E  E  +H
|---------------------------|--------------------------------|
|---------------------------|--------------------------------|
|---------------------------|--------------------------------|
|---------------------------|--------------------------------|
|-6s4-----------------------|-2---4-4s6--4--(4)--------------|
|-----4-(4)-2-----------2h4-|--------------------------------|
|
|                                               |3| |3| |3|
| Q      e  E +E  E +E  E     S S E   E  E   E  E S E S E S
|--------4------------------|---------4---------2-2-2-2-2-2--|
|--------4------------------|---------4---------2-2-2-2-2-2--|
|--------4--------3-(3)-3---|---------4---------3-3-3-3-3-3--|
|-6------6--4-(4)-----------|--------------------------------|
|-6---------4-(4)-----------|-4s6-6-----(2)--4---------------|
|-4---------2-(2)-----------|--------------------------------|


    G#m     F#5   N.C.                G#m/B     F#/A#
  a E E S S E  H            a E   S S S S  E  H
|-------------------------|---------------------------------|
|-------------------------|---------------------------------|
|-------------------------|---------------------------------|
|-----4-------------------|-------4p2-----------------------|
|-4s6---6s4---------------|-4s6-------6p4-----4-------------|
|-----------4--2----------|----------------4----------------|
|
|                                               |3| |3| |3|
|   q   E   E +E  E +E  E     S S E   E    E  E E S E S E S
|-------4-----------------|-----------4---------2-2-2-2-2-2-|
|-------4-----------------|-----------4---------2-2-2-2-2-2-|
|-------4---------3-(3)-3-|-----------4---------3-3-3-3-3-3-|
|---6---6---4-(4)---------|---------------------------------|
|---6-------4-(4)---------|---4s6-6-------(2)-4-------------|
|---4-------2-(2)---------|---------------------------------|


    G#m       F#5   N.C.              G#m/B     F#/A#
  a E S S S S E  E  E  E  E   E   E a E  E  +E  E E E
|---------------------------|----------------------------|
|---------------------------|----------------------------|
|---------------------------|----------------------------|
|-----4p2-------------------|----------------------------|
|-4s6-----6p4---------------|-2---4-4s6--4--(4)-6-4-2----|
|-------------4--2--4--2--4-|----------------------------|
|
|   Q     e   E +E  E +E  E   S S E   E  E   E  E E E
|---------4-----------------|---------4---------2-2-2----|
|---------4-----------------|---------4---------2-2-2----|
|---------4---------3-(3)-3-|---------4---------3-3-3----|
|---6-----6---4-(4)---------|----------------------------|
|---6---------4-(4)---------|-4s6-6-----(2)--4-----------|
|---4---------2-(2)---------|----------------------------|


  G#5       F#5             D#5     C#5        C#suG#5
                                             ~
  H            E  S S Q     H         E  S S Q
|-------------------------|----------------------|
|-------------------------|----------------------|
|-------------------------|----------------------|
|-------------------------|----------------------|
|---------------------2---|--------------4h6p4---|
|-----------------2h4-----|----------------------|
|
| Gtrs II, III
|   |3| |3|                     |3|
| E E S E S E  H            E E E S E Q.       E
|-------------------------|--------------------4-|
|-------------------------|--------------------4-|
|-------------------------|-8-8-8-8-6----------6-|
|-6-6-6-6-6-4-------------|-8-8-8-8-6----------6-|
|-6-6-6-6-6-4-------------|-6-6-6-6-4----------4-|
|-4-4-4-4-4-2-------------|----------------------|
|
| Gtr V
| e e   e   E +E  e   e e   q   e   Q    e   e e
|-------------------------|----------------------|
|-------------------------|----------------------|
|-----------------8-----8-|--------------8-----8-|
|-6-9---8-----------------|----------------------|
|-----------9-(9)---------|-6---9----------------|
|-------------------------|---------9------------|


          F#5             D#5     C#5
                                          ~
  H          E  S S Q     H         E S S E E
|-----------------------|----------------------|
|-----------------------|----------------------|
|-----------------------|----------------------|
|-----------------------|----------------------|
|-------------------2---|-------------4h6p4-2--|
|---------------2h4-----|----------------------|
|
|     |3|                     |3|
| E E E S E  H            E E E S E H
|-----------------------|----------------------|
|-----------------------|----------------------|
|-----------------------|-8-8-8-8-6------------|
|-6-6-6-6-4-------------|-8-8-8-8-6------------|
|-6-6-6-6-4-------------|-6-6-6-6-4------------|
|-4-4-4-4-2-------------|----------------------|
|
| e e e   E +E  e   e e   q   e   Q   e   e e
|-----------------------|----------------------|
|-----------------------|----------------------|
|---------------8-----8-|-------------8-----8--|
|-6-9-8-----------------|----------------------|
|---------9-(9)---------|-6---9----------------|
|-----------------------|---------9------------|


  G#5   F#5                       D#5   C#5
  W                               W
|-------------------------------|---------------------------|
|-------------------------------|---------------------------|
|-------------------------------|---------------------------|
|-------------------------------|---------------------------|
|-------------------------------|---------------------------|
|-------------------------------|---------------------------|
|
|     |3| |3|  |3-| |3| |3| |3|         |3| |3| |3| |3| |3|
| E E E S E S  E  S E S E S E S   E E E E S E S E S E S E S
|-------------------------------|---------------------------|
|-------------------------------|---------------------------|
|-------------------------------|-8-8-8---------------------|
|-6-6---------------------------|-8-8-8-6-6-6-6-6-6-6-6-6-6-|
|-6-6-6-4-4-4--4--4-4-4-4-4-4-4-|-6-6-6-4-4-4-4-4-4-4-4-4-4-|
|-4-4-4-2-2-2--2--2-2-2-2-2-2-2-|---------------------------|
|
| e e e   E   +E    e   e   e     q   e Q       e   e   e
|-------------------------------|---------------------------|
|-------------------------------|---------------------------|
|-------------------8-------8---|---------------8-------8---|
|-6-9-8-------------------------|---------------------------|
|---------9---(9)---------------|-6---9---------------------|
|-------------------------------|-------9-------------------|


  G#5   F#5                     D#5     C#5     B5
  W                             H       E S S E E
|-----------------------------|-------------------||
|-----------------------------|-------------------||
|-----------------------------|-----------6s8s6-4-||
|-----------------------------|-----------6s8s6-4-||
|-----------------------------|-----------4s6s4-2-||
|-----------------------------|-------------------||
|
|       |3|  |3-| |3| |3| |3|
| E E E E S  E  S E S E S E S   E E E E E S S E E
|-----------------------------|-------------------||
|-----------------------------|-------------------||
|-----------------------------|-8-8-8-8-6-6s8s6-4-||
|-6-6-6-----------------------|-8-8-8-8-6-6s8s6-4-||
|-6-6-6-4-4--4--4-4-4-4-4-4-4-|-6-6-6-6-4-4s6s4-2-||
|-4-4-4-2-2--2--2-2-2-2-2-2-2-|-------------------||
|
| e e e E   +E    e   e   e     q   e Q   e   e e
|-----------------------------|-------------------||
|-----------------------------|-------------------||
|-----------------8-------8---|-----------8-----8-||
|-6-9-8-----------------------|-------------------||
|-------9---(9)---------------|-6---9-------------||
|-----------------------------|-------9-----------||


   Pre-Chorus
    E5                                            F#C#sus2/G#
    Gtrs I, II
    E E +E  E +E  E +E  E   +E  E +E  E +E  E S S S  S
||------------------------|-----------------------------|
||o---0-(0)-0-(0)-0-(0)-0-|-(0)-0-(0)-0-(0)-0-----------|
||----4-(4)-4-(4)-4-(4)-4-|-(4)-4-(4)-4-(4)-4-------(6)-|
||--2-2-(2)-2-(2)-2-(2)-2-|-(2)-2-(2)-2-(2)-2-2-2-4--6--|
||o-2-2-(2)-2-(2)-2-(2)-2-|-(2)-2-(2)-2-(2)-2-2-2-4--6--|
||--0-0-(0)-0-(0)-0-(0)-0-|-(0)-0-(0)-0-(0)-0-0-0-2--4--|
|
|   Gtr III
|   E E  E  E  E  E  E  E    E  E  E  E  E  E S S S  S
||----0-----0-----0-----0-|-----0-----0-----0-----------|
||o---0-----0-----0-----0-|-----0-----0-----0-----------|
||----4-----4-----4-----4-|-----4-----4-----4-------(6)-|
||--2-2--2--2--2--2--2--2-|--2--2--2--2--2--2-2-2-4--6--|
||o-2-2--2--2--2--2--2--2-|--2--2--2--2--2--2-2-2-4--6--|
||--0----0-----0-----0----|--0-----0-----0----0-0-2--4--|


  C#sus2/G# F#G#m           F#G#m             F#G#m           B5
  +E   e  E S  S  +E   e  E S  S    +E   e  E S  S  +S   S  S S S S E
|---------------------------------|------------------------------------||
|---------------------------------|-----------------------------------o||
|-(6)-(6)-----(4)-(4)-(4)-----(4)-|-(4)-(4)-----(4)-(4)-(4)---4-4-4-4--||
|-(6)--6----4--6--(6)--6----4--6--|-(6)--6----4--6--(6)--6--6-4-4-4-4--||
|-(6)--6----4--6--(6)--6----4--6--|-(6)--6----4--6--(6)--6--6-2-2-2-2-o||
|-(4)--4----2--4--(4)--4----2--4--|-(4)--4----2--4--(4)--4--4----------||
|
| +E   e  E S  S  +E   e  E S  S    +E   e  E S  S  +S   S  S S S S E
|---------------------------------|------------------------------------||
|---------------------------------|-----------------------------------o||
|-(6)-(6)-----(4)-(4)-(4)-----(4)-|-(4)-(4)-----(4)-(4)-(4)---4-4-4-4--||
|-(6)--6----4--6--(6)--6----4--6--|-(6)--6----4--6--(6)--6--6-4-4-4-4--||
|-(6)--6----4--6--(6)--6----4--6--|-(6)--6----4--6--(6)--6--6-2-2-2-2-o||
|-(4)--4----2--4--(4)--4----2--4--|-(4)--4----2--4--(4)--4--4----------||


 Chorus
  E5        B/E     B5              F#sus4/CE5
  S S e e e e e e S S   +S  S e e e e e e S S
|---------------------|-----------------------|
|-0-0-0-0-0-0-0-0-0-0-|-(0)-0-0-0-0-0-0-0-0-0-|
|-9-9-9-9-9-8-8-8-8-4-|-(4)-4-4-4-4-6-6-6-6-9-|
|-9-9-9-9-9-9-9-9-9-4-|-(4)-4-4-4-4-4-4-4-4-9-|
|-7-7-7-7-7-7-7-7-7-2-|-(2)-2-2-2-2-4-4-4-4-7-|
|---------------------|-----------------------|
|
| S S e e e e e e S S   +S  S e e e e e e S S
|---------------------|-----------------------|
|-0-0-0-0-0-0-0-0-0-0-|-(0)-0-0-0-0-0-0-0-0-0-|
|-9-9-9-9-9-8-8-8-8-4-|-(4)-4-4-4-4-6-6-6-6-9-|
|-9-9-9-9-9-9-9-9-9-4-|-(4)-4-4-4-4-4-4-4-4-9-|
|-7-7-7-7-7-7-7-7-7-2-|-(2)-2-2-2-2-4-4-4-4-7-|
|---------------------|-----------------------|


              B/E         B5              F#suB5/F# E5
  +S  S e e e  e  e  e  S S   +S  S e e e e e S S S S
|---------------------------|-------------------------|
|-(0)-0-0-0-0--0--0--0--0-0-|-(0)-0-0-0-0-0-0-------0-|
|-(9)-9-9-9-9--8--8--8--8-4-|-(4)-4-4-4-4-6-6-------9-|
|-(9)-9-9-9-9--9--9--9--9-4-|-(4)-4-4-4-4-4-4-4-4-4-9-|
|-(7)-7-7-7-7--7--7--7--7-2-|-(2)-2-2-2-2-4-4-2-2-2-7-|
|---------------------------|-----------------2-2-2---|
|
| +S  S e e e  e  e  e  S S   +S  S e e e e e S S S S
|---------------------------|-------------------------|
|-(0)-0-0-0-0--0--0--0--0-0-|-(0)-0-0-0-0-0-0-------0-|
|-(9)-9-9-9-9-11-11-11-11-4-|-(4)-4-4-4-4-6-6-------9-|
|-(9)-9-9-9-9--9--9--9--9-4-|-(4)-4-4-4-4-4-4-4-4-4-9-|
|-(7)-7-7-7-7--7--7--7--7-2-|-(2)-2-2-2-2-4-4-2-2-2-7-|
|---------------------------|-----------------2-2-2---|


  E5          B/E      B5              F#sus4/C#E5
  +S  S e e e e e e  S S   +S  S e e e e e e  S S
|------------------------|------------------------|
|-(0)-0-0-0-0-0-0-0--0-0-|-(0)-0-0-0-0-0-0-0--0-0-|
|-(9)-9-9-9-9-8-8-8--8-4-|-(4)-4-4-4-4-6-6-6--6-9-|
|-(9)-9-9-9-9-9-9-9--9-4-|-(4)-4-4-4-4-4-4-4--4-9-|
|-(7)-7-7-7-7-7-7-7--7-2-|-(2)-2-2-2-2-4-4-4--4-7-|
|------------------------|------------------------|
|
| +S  S e e e e e e  S S   +S  S e e e e e e  S S
|------------------------|------------------------|
|-(0)-0-0-0-0-0-0-0--0-0-|-(0)-0-0-0-0-0-0-0--0-0-|
|-(9)-9-9-9-9-8-8-8--8-4-|-(4)-4-4-4-4-6-6-6--6-9-|
|-(9)-9-9-9-9-9-9-9--9-4-|-(4)-4-4-4-4-4-4-4--4-9-|
|-(7)-7-7-7-7-7-7-7--7-2-|-(2)-2-2-2-2-4-4-4--4-7-|
|------------------------|------------------------|
|
| Gtr V
|                           ~~~
|  Q      Q   Q   E.   S   +H          Q   E.   S
|------------------------|------------------------|
|---------5---4----------|------------------------|
|-----------------4------|-----------------4------|
|----------------------4-|-(4)---------4--------4-|
|------------------------|------------------------|
|------------------------|------------------------|


              B/E          B5/G#                 F#5/B5/F# E5
  +S  S e e e  e  e  e   S S    S  S S S S S S S e E S S S S
|----------------------------|--------------------------------|
|-(0)-0-0-0-0--0--0--0---0---|--------------------------------|
|-(9)-9-9-9-9--8--8--8---8-4-|--4--4-4-4-4-4-4-4-6---4-4-4----|
|-(9)-9-9-9-9--9--9--9---9-4-|--4--4-4-4-4-4-4-4-4---4-4-4-2--|
|-(7)-7-7-7-7--7--7--7---7-2-|--2--2-2-2-2-2-2-2-4---2-2-2-2--|
|--------------------------4-|--4--4-4-4-4-4-4-4-6---2-2-2-0--|
|
| +S  S e e e  e  e  e   S S    S  S S S S S S S e E S S S S
|----------------------------|--------------------------------|
|-(0)-0-0-0-0--0--0--0---0---|--------------------------------|
|-(9)-9-9-9-9-11-11-11--11-4-|--4--4-4-4-4-4-4-4-6---4-4-4----|
|-(9)-9-9-9-9--9--9--9---9-4-|--4--4-4-4-4-4-4-4-4---4-4-4-2--|
|-(7)-7-7-7-7--7--7--7---7-2-|--2--2-2-2-2-2-2-2-4---2-2-2-2--|
|--------------------------4-|--4--4-4-4-4-4-4-4-6---2-2-2-0--|
|
|                               ~~~
| +Q      Q    Q     E.    S   +H                Q   Q
|----------------------------|--------------------------------|
|---------5----4-------------|--------------------------------|
|--------------------4-------|-----------------------4--------|
|-(4)----------------------4-|-(4)---------------4------------|
|----------------------------|--------------------------------|
|----------------------------|--------------------------------|


  E5                   B5/G#                 F#5 G#5    E5
  +S  S E E E E E E  S S   +S  S S S S S S S E E S  S S  S
|------------------------|----------------------------------|
|-------0---0---0----0---|----------------------------------|
|-------4---4---4----4-4-|-(4)-4-4-4-4-4-4-4----------------|
|-(2)-2-2-2-2-2-2-2--2-4-|-(4)-4-4-4-4-4-4-4-4-4-6--6-6--2--|
|-(2)-2-2-2-2-2-2-2--2-2-|-(2)-2-2-2-2-2-2-2-4-4-6--6-6--2--|
|-(0)-0---0---0---0--4-4-|-(4)-4-4-4-4-4-4-4-2-2-4--4-4--0--|
|
| Gtr V
|                           ~~~
|  Q      Q   Q   E.   S   +H                Q   E.      S
|------------------------|----------------------------------|
|---------5---4----------|----------------------------------|
|-----------------4------|-----------------------4----------|
|-(4)------------------4-|-(4)---------------4----------(4)-|
|------------------------|----------------------------------|
|------------------------|----------------------------------|


                       B5/G#                 F#add11B5/FE5
  +S  S E E E E E E  S S   +S  S S S S S S S E E S  S S  S
|------------------------|-----------------------------------|
|-------0---0---0----0---|-----------------------------------|
|-------4---4---4----4-4-|-(4)-4-4-4-4-4-4-4-3-3-4--4-4------|
|-(2)-2-2-2-2-2-2-2--2-4-|-(4)-4-4-4-4-4-4-4-4-4-4--4-4--2---|
|-(2)-2-2-2-2-2-2-2--2-2-|-(2)-2-2-2-2-2-2-2-2-2-2--2-2--2---|
|-(0)-0---0---0---0----4-|-(4)-4-4-4-4-4-4-4-2-2-2--2-2--0---|
|
|                           ~~~
| +Q      Q   Q   E.   S   +H                Q   E.      S
|------------------------|-----------------------------------|
|---------5---4----------|-----------------------------------|
|-----------------4------|-----------------------4-----------|
|-(4)------------------4-|-(4)---------------4----------(4)--|
|------------------------|-----------------------------------|
|------------------------|-----------------------------------|


                       B5/G#                 F#5 G#5    E5
  +S  S E E E E E E  S S   +S  S S S S S S S E E S  S S  S
|------------------------|----------------------------------|
|-------0---0---0----0---|----------------------------------|
|-------4---4---4----4-4-|-(4)-4-4-4-4-4-4-4----------------|
|-(2)-2-2-2-2-2-2-2--2-4-|-(4)-4-4-4-4-4-4-4-4-4-6--6-6--2--|
|-(2)-2-2-2-2-2-2-2--2-2-|-(2)-2-2-2-2-2-2-2-4-4-6--6-6--2--|
|-(0)-0---0---0---0--4-4-|-(4)-4-4-4-4-4-4-4-2-2-4--4-4--0--|
|
|                           ~~~
| +Q      Q   Q   E.   S   +H                Q   E.      S
|------------------------|----------------------------------|
|---------5---4----------|----------------------------------|
|-----------------4------|-----------------------4----------|
|-(4)------------------4-|-(4)---------------4----------(4)-|
|------------------------|----------------------------------|
|------------------------|----------------------------------|


                       B5/G#                 F#5 G#5
  +S  S E E E E E E  S S    S  S S S S S S S E E S  S E
|------------------------|-----------------------------------||
|-------0---0---0----0---|-----------------------------------||
|-------4---4---4----4-4-|--4--4-4-4-4-4-4-4-----------------||
|-(2)-2-2-2-2-2-2-2--2-4-|--4--4-4-4-4-4-4-4-4-4-6--6-6------||
|-(2)-2-2-2-2-2-2-2--2-2-|--2--2-2-2-2-2-2-2-4-4-6--6-6------||
|-(0)-0---0---0---0----4-|--4--4-4-4-4-4-4-4-2-2-4--4-4------||
|
|                           ~~~
| +Q      Q   Q   E.   S   +H                Q   E.      S
|------------------------|-----------------------------------||
|---------5---4----------|-----------------------------------||
|-----------------4------|-----------------------4-----------||
|-(4)------------------4-|-(4)---------------4----------(4)--||
|------------------------|-----------------------------------||
|------------------------|-----------------------------------||


 Verse
  E5                   (G#m/D#)
  Gtr III
   W                   E. E.   Q.    Q
|-^0-----------------|-------------------|
|-^0-----------------|-9-----------------|
|-^9-----------------|----8--------------|
|-^9-----------------|---------9---------|
|-^7-----------------|---------------6---|
|--------------------|-------------------|
|
| Gtr IV
|  W                   W
|--------------------|-------------------|
|--------------------|-------------------|
|--------------------|-------------------|
|--------------------|-------------------|
|--------------------|-------------------|
|--------------------|-------------------|
|
| Gtr V
|  e e e E +E  e e e   q     e Q   e e e
|--------------------|-------------------|
|--------------------|-------------------|
|--------------8---8-|-------------8---8-|
|--6-9-8-------------|-------------------|
|--------9-(9)-------|-6-----9-----------|
|--------------------|---------9---------|


  E5                    (G#m/D#)
  H       +E  E +Q      E. E.   Q.    Q
|-------------0-(0)---|-------------------|
|-------------0-(0)---|-9-----------------|
|-9-------(9)-9-(9)---|----8--------------|
|-9-------(9)-9-(9)---|---------9---------|
|-7-------(7)---------|---------------6---|
|-0-------(0)---------|-------------------|
|
| W                     E. E.   Q.    Q
|---------------------|-------------------|
|---------------------|-9-----------------|
|---------------------|----8--------------|
|-2-------------------|---------9---------|
|-2-------------------|---------------6---|
|-0-------------------|-------------------|
|
| e e e E +E  e  e  e   q     e Q   e e e
|---------------------|-------------------|
|---------------------|-------------------|
|-------------8-----8-|-------------8---8-|
|-6-9-8---------------|-------------------|
|-------9-(9)---------|-6-----9-----------|
|---------------------|---------9---------|


  E5                   (G#m/D#)            E5
   W                   E. E.   Q.    Q      W
|-^0-----------------|-------------------|-^0-------------------|
|-^0-----------------|-9-----------------|-^0-------------------|
|-^9-----------------|----8--------------|-^9-------------------|
|-^9-----------------|---------9---------|-^9-------------------|
|-^7-----------------|---------------6---|-^7-------------------|
|--------------------|-------------------|----------------------|
|
|                                                           Gtr I
|  W                   E. E.   Q.    Q      H..               E
|--------------------|-------------------|----------------------|
|--------------------|-9-----------------|----------------------|
|--------------------|----8--------------|----------------------|
|--2-----------------|---------9---------|--2-------------------|
|--2-----------------|---------------6---|--2-------------------|
|--0-----------------|-------------------|--0-----------------2s|
|
|  e e e E +E  e e e   q     e Q   e e e    e   e e E +E  e e e
|--------------------|-------------------|----------------------|
|--------------------|-------------------|----------------------|
|--------------8---8-|-------------8---8-|----------------8---8-|
|--6-9-8-------------|-------------------|--6---9-8-------------|
|--------9-(9)-------|-6-----9-----------|----------9-(9)-------|
|--------------------|---------9---------|----------------------|


  G#m/B
  S S S S S S S S S    S  S    S  Q
|-------------------------------------------|
|-9-9---9-9---9-9------9--9-------9---------|
|-8-8---8-8---8-8------8--8-------8---------|
|-9-9---9-9---9-9------9--9-------9---------|
|-------------------------------------------|
|-------------------------------------------|
|
|I
| E   E   E   E   S   +S  S   +S  S   +S  E
|-------------------------------------------|
|-------------------------------------------|
|-------------------------------------------|
|-------------------------------------------|
|-----2---4---4---4b5r(4)-4b5r(4)-4b5r(4)-4-|
|-4-----------------------------------------|
|
| q       e   Q           e       e       e
|-------------------------------------------|
|-------------------------------------------|
|-------------------------8---------------8-|
|-------------------------------------------|
|-6-------9---------------------------------|
|-------------9-----------------------------|


  G#5   F#5   G#m/B   D#5   C#5   C#m/G#
  H       S S E E E   H       S S E E E
|-----------x-4-4-4-|-----------x-0-0-0-|
|-----------x-4-4-4-|-----------x-2-2-2-|
|-----------x-4-4-4-|-----------x-1-1-1-|
|-------------------|-------------------|
|-------------------|-------------------|
|-------------------|-------------------|
|
| PM-------------------------------------
| E E E E H           E E E E H
|-------------------|-------------------|
|-------------------|-------------------|
|-------------------|-8-8-8-6-----------|
|-6-6-6-4-----------|-8-8-8-6-----------|
|-6-6-6-4-----------|-6-6-6-4-----------|
|-4-4-4-2-----------|-------------------|


  G#5         G#m/B   D#5         C#m/G#
  H       S S E E E   H       S S E E E
|-----------x-4-4-4-|-----------x-0-0-0--|
|-----------x-4-4-4-|-----------x-2-2-2--|
|-----------x-4-4-4-|-----------x-1-1-1--|
|-------------------|--------------------|
|-------------------|--------------------|
|-------------------|--------------------|
|
|-----------------------------|
| E E E E H           E E E E H
|-------------------|--------------------|
|-------------------|--------------------|
|-------------------|-8-8-8-6------------|
|-6-6-6-4-----------|-8-8-8-6------------|
|-6-6-6-4-----------|-6-6-6-4------------|
|-4-4-4-2-----------|--------------------|


  G#5     F#5           D#5     C#5   D#5 B5
  Gtr I
  E E S S E E E E S S   E E S S E E S S E E
|---------------------|---------------------|
|---------------------|---------------------|
|---------------------|-8-8-8-8-6-6-6s8s6-4-|
|-6-6-6-6-4-4-4-4-4-4-|-8-8-8-8-6-6-6s8s6-4-|
|-6-6-6-6-4-4-4-4-4-4-|-6-6-6-6-4-4-4s6s4-2-|
|-4-4-4-4-2-2-2-2-2-2-|---------------------|
|
| E E S S E E E E S S   E E S S E E S S E E
|---------------------|---------------------|
|---------------------|---------------------|
|---------------------|-8-8-8-8-6-6-6s8s6-4-|
|-6-6-6-6-4-4-4-4-4-4-|-8-8-8-8-6-6-6s8s6-4-|
|-6-6-6-6-4-4-4-4-4-4-|-6-6-6-6-4-4-4s6s4-2-|
|-4-4-4-4-2-2-2-2-2-2-|---------------------|


  G#5         F#5                   D#5           C#5 D#C#B5
  S S S S S S S S S S S S S S S S   S S S S S S E E S S E E
|---------------------------------|--------------------------||
|---------------------------------|--------------------------||
|---------------------------------|-8-8-8-8-8-8-8-6-6s8s6-4--||
|-6-6-6-6-6-6-4-4-4-4-4-4-4-4-4-4-|-8-8-8-8-8-8-8-6-6s8s6-4--||
|-6-6-6-6-6-6-4-4-4-4-4-4-4-4-4-4-|-6-6-6-6-6-6-6-4-4s6s4-2--||
|-4-4-4-4-4-4-2-2-2-2-2-2-2-2-2-2-|--------------------------||
|
| S S S S S S S S S S S S S S S S   S S S S S S E E S S E E
|---------------------------------|--------------------------||
|---------------------------------|--------------------------||
|---------------------------------|-8-8-8-8-8-8-8-6-6s8s6-4--||
|-6-6-6-6-6-6-4-4-4-4-4-4-4-4-4-4-|-8-8-8-8-8-8-8-6-6s8s6-4--||
|-6-6-6-6-6-6-4-4-4-4-4-4-4-4-4-4-|-6-6-6-6-6-6-6-4-4s6s4-2--||
|-4-4-4-4-4-4-2-2-2-2-2-2-2-2-2-2-|--------------------------||


 Pre-Chorus
  E5                                            F#G#5
  Gtrs I, II
  E E +E  E +E  E +E  E   +E  E +E  E +E  E S S S  S
|-----------------------|-----------------------------|
|---0-(0)-0-(0)-0-(0)-0-|-(0)-0-(0)-0-(0)-0-----------|
|---4-(4)-4-(4)-4-(4)-4-|-(4)-4-(4)-4-(4)-4-------(6)-|
|-2-2-(2)-2-(2)-2-(2)-2-|-(2)-2-(2)-2-(2)-2-2-2-4--6--|
|-2-2-(2)-2-(2)-2-(2)-2-|-(2)-2-(2)-2-(2)-2-2-2-4--6--|
|-0-0-(0)-0-(0)-0-(0)-0-|-(0)-0-(0)-0-(0)-0-0-0-2--4--|
|
| Gtr III
| E E  E  E  E  E  E  E    E  E  E  E  E  E S S S  S
|---0-----0-----0-----0-|-----0-----0-----0-----------|
|---0-----0-----0-----0-|-----0-----0-----0-----------|
|---4-----4-----4-----4-|-----4-----4-----4-------(6)-|
|-2-2--2--2--2--2--2--2-|--2--2--2--2--2--2-2-2-4--6--|
|-2-2--2--2--2--2--2--2-|--2--2--2--2--2--2-2-2-4--6--|
|-0----0-----0-----0----|--0-----0-----0----0-0-2--4--|


  C#sus2/G# F#G#m           F#G#m             F#G#m           B5
  +E   e  E S  S  +E   e  E S  S    +E   e  E S  S  +S   S  S S S S E
|---------------------------------|-----------------------------------|
|---------------------------------|-----------------------------------|
|-(6)-(6)-----(4)-(4)-(4)-----(4)-|-(4)-(4)-----(4)-(4)-(4)---4-4-4-4-|
|-(6)--6----4--6--(6)--6----4--6--|-(6)--6----4--6--(6)--6--6-4-4-4-4-|
|-(6)--6----4--6--(6)--6----4--6--|-(6)--6----4--6--(6)--6--6-2-2-2-2-|
|-(4)--4----2--4--(4)--4----2--4--|-(4)--4----2--4--(4)--4--4---------|
|
| +E   e  E S  S  +E   e  E S  S    +E   e  E S  S  +S   S  S S S S E
|---------------------------------|-----------------------------------|
|---------------------------------|-----------------------------------|
|-(6)-(6)-----(4)-(4)-(4)-----(4)-|-(4)-(4)-----(4)-(4)-(4)---4-4-4-4-|
|-(6)--6----4--6--(6)--6----4--6--|-(6)--6----4--6--(6)--6--6-4-4-4-4-|
|-(6)--6----4--6--(6)--6----4--6--|-(6)--6----4--6--(6)--6--6-2-2-2-2-|
|-(4)--4----2--4--(4)--4----2--4--|-(4)--4----2--4--(4)--4--4---------|


  E5                      B5/G#F#5/B5/F# E5
                          TP
  E E +E  E +E  E +E  E   H    e E S S S S
|-----------------------|------------------||
|---0-(0)-0-(0)-0-(0)-0-|------------------||
|---4-(4)-4-(4)-4-(4)-4-|-4----6---4-4-4---||
|-2-2-(2)-2-(2)-2-(2)-2-|-4----4---4-4-4-2-||
|-2-2-(2)-2-(2)-2-(2)-2-|-2----4---2-2-2-2-||
|-0-0-(0)-0-(0)-0-(0)-0-|-4--------2-2-2-0-||
|
|                         TP
| E E  E  E  E  E  E  E   H    e E S S S S
|---0-----0-----0-----0-|------------------||
|---0-----0-----0-----0-|------------------||
|---4-----4-----4-----4-|-4----6---4-4-4---||
|-2-2--2--2--2--2--2--2-|-4----4---4-4-4-2-||
|-2-2--2--2--2--2--2--2-|-2----4---2-2-2-2-||
|-0----0-----0-----0----|-4--------2-2-2-0-||


 Chorus
  E5                   B5/G#                 F#5 G#5    E5
  +S  S E E E E E E  S S   +S  S S S S S S S E E S  S S  S
|------------------------|----------------------------------|
|-------0---0---0----0---|----------------------------------|
|-------4---4---4----4-4-|-(4)-4-4-4-4-4-4-4----------------|
|-(2)-2-2-2-2-2-2-2--2-4-|-(4)-4-4-4-4-4-4-4-4-4-6--6-6--2--|
|-(2)-2-2-2-2-2-2-2--2-2-|-(2)-2-2-2-2-2-2-2-4-4-6--6-6--2--|
|-(0)-0---0---0---0----4-|-(4)-4-4-4-4-4-4-4-2-2-4--4-4--0--|
|
| Gtr V
|                           ~~~
|  Q      Q   Q   E.   S   +H                Q   E.      S
|------------------------|----------------------------------|
|---------5---4----------|----------------------------------|
|-----------------4------|-----------------------4----------|
|-(4)------------------4-|-(4)---------------4----------(4)-|
|------------------------|----------------------------------|
|------------------------|----------------------------------|


                       B5/G#                 F#adB5/F#  E5
  +S  S E E E E E E  S S   +S  S S S S S S S E E S  S S  S
|------------------------|----------------------------------|
|-------0---0---0----0---|----------------------------------|
|-------4---4---4----4-4-|-(4)-4-4-4-4-4-4-4-3-3-4--4-4-----|
|-(2)-2-2-2-2-2-2-2--2-4-|-(4)-4-4-4-4-4-4-4-4-4-4--4-4--2--|
|-(2)-2-2-2-2-2-2-2--2-2-|-(2)-2-2-2-2-2-2-2-2-2-2--2-2--2--|
|-(0)-0---0---0---0----4-|-(4)-4-4-4-4-4-4-4-2-2-2--2-2--0--|
|
|                           ~~~
| +Q      Q   Q   E.   S   +H                Q   E.      S
|------------------------|----------------------------------|
|---------5---4----------|----------------------------------|
|-----------------4------|-----------------------4----------|
|-(4)------------------4-|-(4)---------------4----------(4)-|
|------------------------|----------------------------------|
|------------------------|----------------------------------|


                       B5/G#                 F#adB5/F#  E5
  +S  S E E E E E E  S S   +S  S S S S S S S E E S  S S  S
|------------------------|----------------------------------|
|-------0---0---0----0---|----------------------------------|
|-------4---4---4----4-4-|-(4)-4-4-4-4-4-4-4-3-3-4--4-4-----|
|-(2)-2-2-2-2-2-2-2--2-4-|-(4)-4-4-4-4-4-4-4-4-4-4--4-4--2--|
|-(2)-2-2-2-2-2-2-2--2-2-|-(2)-2-2-2-2-2-2-2-2-2-2--2-2--2--|
|-(0)-0---0---0---0----4-|-(4)-4-4-4-4-4-4-4-2-2-2--2-2--0--|
|
|                           ~~~
| +Q      Q   Q   E.   S   +H                Q   E.      S
|------------------------|----------------------------------|
|---------5---4----------|----------------------------------|
|-----------------4------|-----------------------4----------|
|-(4)------------------4-|-(4)---------------4----------(4)-|
|------------------------|----------------------------------|
|------------------------|----------------------------------|


                       B5                    F#5
  +S  S E E E E E E  S S   +S  S S S S S S S S S S S S S e
|------------------------|---------------------------------||
|-------0---0---0----0---|---------------------------------||
|-------4---4---4----4-4-|-(4)-4-4-4-4-4-4-4---------------||
|-(2)-2-2-2-2-2-2-2--2-4-|-(4)-4-4-4-4-4-4-4-4-4-4-4-4-4-4-||
|-(2)-2-2-2-2-2-2-2--2-2-|-(2)-2-2-2-2-2-2-2-4-4-4-4-4-4-4-||
|-(0)-0---0---0---0------|-------------------2-2-2-2-2-2-2-||
|
|                           ~~~
| +Q      Q   Q   E.   S   +H                Q       e   E
|------------------------|---------------------------------||
|---------5---4----------|---------------------------------||
|-----------------4------|---------------------------4-----||
|-(4)------------------4-|-(4)---------------4-------------||
|------------------------|---------------------------------||
|------------------------|---------------------------------||


 Guitar Solo
  E5                      B5/G#                 F#5     G#5   E5
  Gtr I
  S S E S S E S S E S S S S   +S  S E   S S S S S S S S S S S S
|---------------------------|-----------------------------------|
|---------------------------|---------------2-2-4-4-2-2---------|
|-4-4-3-4-4-3-4-4-3-4-4-3-4-|-(4)-4-3---4-4-x-x-x-x-x-x-4-4-3-4-|
|-4-4-4-4-4-4-4-4-4-4-4-4-4-|-(4)-4-4---4-4-4-4-4-4-4-4-4-4-4-4-|
|---------------------------|-----------------------------------|
|---------------------------|-----------------------------------|
|
| Gtr II
| S S E E   E E   E E   S S   +S  S S S S S S S E   E   S S S S
|---------------------------|-----------------------------------|
|-----0-----0-----0-----0---|-----------------------------------|
|-----4-----4-----4-----4-4-|-(4)-4-4-4-4-4-4-4-----------------|
|-2-2-2-2---2-2---2-2---2-4-|-(4)-4-4-4-4-4-4-4-4---4---6-6-6-2-|
|-2-2-2-2---2-2---2-2---2-2-|-(2)-2-2-2-2-2-2-2-4---4---6-6-6-2-|
|-0-0---0-----0-----0-----4-|-(4)-4-4-4-4-4-4-4-2---2---4-4-4-0-|


                            B5/G#                 F#add11 B5/F#  E5
                                                          ~~
  +S  S E S S E S S E S S S S   +S  S E   S S S S S S S S E.     S
|-----------------------------|-------------------------2-2--------|
|-----------------------------|---------------2-2-4-4-4------------|
|-(4)-4-3-4-4-3-4-4-3-4-4-3-4-|-(4)-4-3---4-4-x-x-x-x-x----------4-|
|-(4)-4-4-4-4-4-4-4-4-4-4-4-4-|-(4)-4-4---4-4-4-4-4-4-4----------4-|
|-----------------------------|------------------------------------|
|-----------------------------|------------------------------------|
|
| +S  S E E   E E   E E   S S   +S  S S S S S S S E   E   S  S S S
|-----------------------------|------------------------------------|
|-------0-----0-----0-----0---|------------------------------------|
|-------4-----4-----4-----4-4-|-(4)-4-4-4-4-4-4-4-3---3---4--4-4---|
|-(2)-2-2-2---2-2---2-2---2-4-|-(4)-4-4-4-4-4-4-4-4---4---4--4-4-2-|
|-(2)-2-2-2---2-2---2-2---2-2-|-(2)-2-2-2-2-2-2-2-2---2---2--2-2-2-|
|-(0)-0---0-----0-----0-----4-|-(4)-4-4-4-4-4-4-4-2---2---2--2-2-0-|


                            B5/G#                 F#5     G#5   E5
  +S  S E S S E S S E S S S S   +S  S E   S S S S S S S S S S S S
|-----------------------------|-----------------------------------|
|-----------------------------|---------------2-2-4-4-2-2---------|
|-(4)-4-3-4-4-3-4-4-3-4-4-3-4-|-(4)-4-3---4-4-x-x-x-x-x-x-4-4-3-4-|
|-(4)-4-4-4-4-4-4-4-4-4-4-4-4-|-(4)-4-4---4-4-4-4-4-4-4-4-4-4-4-4-|
|-----------------------------|-----------------------------------|
|-----------------------------|-----------------------------------|
|
| +S  S E E   E E   E E   S S   +S  S S S S S S S E   E   S S S S
|-----------------------------|-----------------------------------|
|-------0-----0-----0-----0---|-----------------------------------|
|-------4-----4-----4-----4-4-|-(4)-4-4-4-4-4-4-4-----------------|
|-(2)-2-2-2---2-2---2-2---2-4-|-(4)-4-4-4-4-4-4-4-4---4---6-6-6-2-|
|-(2)-2-2-2---2-2---2-2---2-2-|-(2)-2-2-2-2-2-2-2-4---4---6-6-6-2-|
|-(0)-0---0-----0-----0-----4-|-(4)-4-4-4-4-4-4-4-2---2---4-4-4-0-|


                            B5                  F#5
  +S  S E S S E S S E S S S S   S S S S S S S S S S S S S S S S
|-----------------------------|---------------------------------||
|-----------------------------|-----------------2-2-2-2-4-4-4-4-||
|-(4)-4-3-4-4-3-4-4-3-4-4-3-4-|-4-4-4-4-4-4-4-4-x-x-x-x-x-x-x-x-||
|-(4)-4-4-4-4-4-4-4-4-4-4-4-4-|-4-4-4-4-4-4-4-4-4-4-4-4-4-4-4-4-||
|-----------------------------|---------------------------------||
|-----------------------------|---------------------------------||
|
|  S  S E E   E E   E E   S S   S S S S S S S S S S S S S S S S
|-----------------------------|---------------------------------||
|-------0-----0-----0-----0---|---------------------------------||
|-------4-----4-----4-----4-4-|-4-4-4-4-4-4-4-4-----------------||
|--2--2-2-2---2-2---2-2---2-4-|-4-4-4-4-4-4-4-4-4-4-4-4-4-4-4-4-||
|--2--2-2-2---2-2---2-2---2-2-|-2-2-2-2-2-2-2-2-4-4-4-4-4-4-4-4-||
|--0--0---0-----0-----0-------|-----------------2-2-2-2-2-2-2-2-||


 Breakdown
  B5                                    N.C.
  >
  ~~~~~~~~~~~~~~~~~~~~~~
  W                 +W                  W                 W
|-----------------|-------------------|-----------------|-----------------|
|-----------------|-------------------|-----------------|-----------------|
|-4---------------|-(4)---------------|-----------------|-----------------|
|-4---------------|-(4)---------------|-----------------|-----------------|
|-2---------------|-(2)---------------|-----------------|-----------------|
|-----------------|-------------------|-----------------|-----------------|
|
| Gtr VI
| E E E E E E E E    E  E E E E E E E   E E E E E E E E   E E E E E E E E
|-----------------|-------------------|-----------------|-----------------|
|-------8-----6---|---------8-----6---|-----------------|-----------------|
|---------6-------|-----------6-------|-----------------|-----------------|
|-----6-----4---4-|-------6-----4---4-|-------4-----2---|-------4-----2---|
|-0-4-------------|--0--4-------------|-----2---2-------|-----2---2-------|
|-----------------|-------------------|-0-4-------4---4-|-0-4-------4---4-|


  E5
  Gtr IV
  S S S S S S S S S S S S S S S S   S S S S S S S S S S S S S S S S
|---------------------------------|---------------------------------|
|---------------------------------|---------------------------------|
|-4-4-4-4-4-4-4-4-4-4-4-4-4-4-4-4-|-4-4-4-4-4-4-4-4-4-4-4-4-4-4-4-4-|
|-2-2-2-2-2-2-2-2-2-2-2-2-2-2-2-2-|-2-2-2-2-2-2-2-2-2-2-2-2-2-2-2-2-|
|-2-2-2-2-2-2-2-2-2-2-2-2-2-2-2-2-|-2-2-2-2-2-2-2-2-2-2-2-2-2-2-2-2-|
|-0-0-0-0-0-0-0-0-0-0-0-0-0-0-0-0-|-0-0-0-0-0-0-0-0-0-0-0-0-0-0-0-0-|
|
| E   E   E   E   E   E   E   E     E   E   E   E   E   E   E   E
|---------------------------------|---------------------------------|
|-------------8-----------6-------|-------------8-----------6-------|
|-----------------6---------------|-----------------6---------------|
|---------6-----------4-------4---|---------6-----------4-------4---|
|-0---4---------------------------|-0---4---------------------------|
|---------------------------------|---------------------------------|


  B5
  S S S S S S S S S S S S S S S S   S S S S S S S S S S S S S S S S
|---------------------------------|---------------------------------||
|---------------------------------|---------------------------------||
|-4-4-4-4-4-4-4-4-4-4-4-4-4-4-4-4-|-4-4-4-4-4-4-4-4-4-4-4-4-4-4-4-4-||
|-4-4-4-4-4-4-4-4-4-4-4-4-4-4-4-4-|-4-4-4-4-4-4-4-4-4-4-4-4-4-4-4-4-||
|-2-2-2-2-2-2-2-2-2-2-2-2-2-2-2-2-|-2-2-2-2-2-2-2-2-2-2-2-2-2-2-2-2-||
|---------------------------------|---------------------------------||
|
| E   E   E   E   E   E   E   E     E   E   E   E   E   E   E   E
|---------------------------------|---------------------------------||
|---------------------------------|---------------------------------||
|---------------------------------|---------------------------------||
|-------------4-----------2-------|-------------4-----------2-------||
|---------2-------2---------------|---------2-------2---------------||
|-0---4---------------4-------4---|-0---4---------------4-------4---||


 Bridge
  N.C.                       F#/B
  Gtr I
  W          H.        Q     S E E S S E E S S S S S
|----------|---------<12>--|-------------------------|
|----------|---------<12>--|-------------------------|
|----------|---------------|-3-3-3-3-3-3-3-3---------|
|----------|---------------|-4-4-4-4-4-4-4-4---------|
|----------|---------------|-2-2-2-2-2-2-2-2-x-x-x-x-|
|----------|---------------|-----------------x-x-x-x-|


  S E E S S E E S S S S S
|---------------------------|
|---------------------------|
|-3-3-3-3-3-3-3-3-----------|
|-4-4-4-4-4-4-4-4-----------|
|-2-2-2-2-2-2-2-2-x-x-x-x---|
|-----------------x-x-x-x---|


  N.C.                      F#/B
                      ~~~
  W          H.       Q     S E E S S E E S S S S S
|----------|---------[6]--|-------------------------|
|----------|--------------|-------------------------|
|----------|--------------|-3-3-3-3-3-3-3-3---------|
|----------|--------------|-4-4-4-4-4-4-4-4---------|
|----------|--------------|-2-2-2-2-2-2-2-2-x-x-x-x-|
|----------|--------------|-----------------x-x-x-x-|


  S E E S S E E S S S S S
|---------------------------|
|---------------------------|
|-3-3-3-3-3-3-3-3-----------|
|-4-4-4-4-4-4-4-4-----------|
|-2-2-2-2-2-2-2-2-x-x-x-x---|
|-----------------x-x-x-x---|


  B/C#
  PM--------------------------------------|
  S E E S S E E S E E   S E E S S E E S E E
|---------------------|---------------------|
|-4-2-2-2-4-2-2-4-2-4-|-4-2-2-2-4-2-2-4-2-4-|
|-4-4-4-4-4-4-4-4-4-4-|-4-4-4-4-4-4-4-4-4-4-|
|-x-x-x-x-x-x-x-x-x-x-|-x-x-x-x-x-x-x-x-x-x-|
|-4-4-4-4-4-4-4-4-4-4-|-4-4-4-4-4-4-4-4-4-4-|
|---------------------|---------------------|


  F#/B
  S E E S S E E S S S S S   S E E S S E E S S S S S
|-------------------------|--------------------------|
|-------------------------|--------------------------|
|-3-3-3-3-3-3-3-3---------|-3-3-3-3-3-3-3-3----------|
|-4-4-4-4-4-4-4-4---------|-4-4-4-4-4-4-4-4----------|
|-2-2-2-2-2-2-2-2-x-x-x-x-|-2-2-2-2-2-2-2-2-x-x-x-x--|
|-----------------x-x-x-x-|-----------------x-x-x-x--|


  B/C#
      PM|     PM|               PM|     PM|
  S E E S S E E S S S S S   S E E S S E E S  Q
|-------------------------|-----------------<7>--|
|-4p2-2-2-4p2-2-2-4p2-4p2-|-4p2-2-2-4p2-2-2------|
|-4-4-4-4-4-4-4-4-4-4-4-4-|-4-4-4-4-4-4-4-4------|
|-x-x-x-x-x-x-x-x-x-x-x-x-|-x-x-x-x-x-x-x-x------|
|-4-4-4-4-4-4-4-4-4-4-4-4-|-4-4-4-4-4-4-4-4------|
|-------------------------|----------------------|


  F#/B
  S E E S S E E S S S S S   S S S S S S S S S S S S S S S S
|-------------------------|------------------------------------||
|-------------------------|------------------------------------||
|-3-3-3-3-3-3-3-3---------|-3-3-3-3-3-3-3-3--------------------||
|-4-4-4-4-4-4-4-4---------|-4-4-4-4-4-4-4-4-x-x-x-x-x-x-x-x----||
|-2-2-2-2-2-2-2-2-x-x-x-x-|-2-2-2-2-2-2-2-2-x-x-x-x-x-x-x-x----||
|-----------------x-x-x-x-|-----------------x-x-x-x-x-x-x-x----||


 Outro
  Badd11/C#
   E.    E.     E  S S  E  Q       E.    E.     E  S S  E  E  S S
|-------------------------------|---------------------------------|
|--4-----4------4--4-4--4--4----|--4-----4------4--4-4--4--4--4-4-|
|--4-----4------4--4-4--4--4----|--4-----4------4--4-4--4--4--4-4-|
|--2-----2------2--2-2--2--2----|--2-----2------2--2-2--2--2--2-2-|
|--4-----4------4--4-4--4--4----|--4-----4------4--4-4--4--4--4-4-|
|-------------------------------|---------------------------------|
|
| Gtr V
|  E   E     E  E  E    E  E  E    E   E     E  E  E    E  E  E
|--------------11---------------|--------------11-----------------|
|-------------------------14----|-------------------------14------|
|-----------------13------------|-----------------13--------------|
|-----------13---------11----11-|-----------13---------11----11---|
|-----11------------------------|-----11--------------------------|
|-12----------------------------|-12------------------------------|


  F#add11
  E.   E.   E S S E Q     E.   E.   E S S E E S S
|-----------------------|-------------------------|
|-----------------------|-------------------------|
|-3----3----3-3-3-3-3---|-3----3----3-3-3-3-3-3-3-|
|-4----4----4-4-4-4-4---|-4----4----4-4-4-4-4-4-4-|
|-2----2----2-2-2-2-2---|-2----2----2-2-2-2-2-2-2-|
|-2----2----2-2-2-2-2---|-2----2----2-2-2-2-2-2-2-|
|
| E  E    E E E   E E E   E  E    E E E   E E E
|-----------------------|-------------------------|
|-----------------------|-------------------------|
|-----------6-------4---|-----------6-------4-----|
|---------4---4---------|---------4---4-----------|
|-2--6------------6---6-|-2--6------------6---6---|
|-----------------------|-------------------------|


  Badd11/C#
   E.    E.     E  S S  E  Q       E.    E.     E  S S  E  E  S S
|-------------------------------|---------------------------------|
|--4-----4------4--4-4--4--4----|--4-----4------4--4-4--4--4--4-4-|
|--4-----4------4--4-4--4--4----|--4-----4------4--4-4--4--4--4-4-|
|--2-----2------2--2-2--2--2----|--2-----2------2--2-2--2--2--2-2-|
|--4-----4------4--4-4--4--4----|--4-----4------4--4-4--4--4--4-4-|
|-------------------------------|---------------------------------|
|
|  E   E     E  E  E    E  E  E    E   E     E  E  E    E  E  E
|--------------11---------------|--------------11-----------------|
|-------------------------14----|-------------------------14------|
|-----------------13------------|-----------------13--------------|
|-----------13---------11----11-|-----------13---------11----11---|
|-----11------------------------|-----11--------------------------|
|-12----------------------------|-12------------------------------|


  F#add11
  E.   E.   E S S E Q     E.   E.   E S S S S S S S S
|-----------------------|------------------------------|
|-----------------------|------------------------------|
|-3----3----3-3-3-3-3---|-3----3----3-x-x-x-x-x-x-x-x--|
|-4----4----4-4-4-4-4---|-4----4----4-x-x-x-x-x-x-x-x--|
|-2----2----2-2-2-2-2---|-2----2----2-x-x-x-x-x-x-x-x--|
|-2----2----2-2-2-2-2---|-2----2----2-x-x-x-x-x-x-x-x--|
|
| E  E    E E E   E E E   E  E    E E E   E   E   E
|-----------------------|------------------------------|
|-----------------------|------------------------------|
|-----------6-------4---|-----------6---------4--------|
|---------4---4---------|---------4---4----------------|
|-2--6------------6---6-|-2--6------------6-------6----|
|-----------------------|------------------------------|


  Badd11/C#
   S S  S S  S S  S S  S S  S S  S S  S S    S S  S S  S S  S S  S S  S S  S S  S S
|-----------------------------------------|-----------------------------------------|
|--4-4--4-4--4-4--4-4--4-4--4-4--4-4--4---|--4-4--4-4--4-4--4-4--4-4--4-4--4-4--4---|
|--4-4--4-4--4-4--4-4--4-4--4-4--4-4--4---|--4-4--4-4--4-4--4-4--4-4--4-4--4-4--4---|
|--2-2--2-2--2-2--2-2--2-2--2-2--2-2--2---|--2-2--2-2--2-2--2-2--2-2--2-2--2-2--2---|
|--4-4--4-4--4-4--4-4--4-4--4-4--4-4--4---|--4-4--4-4--4-4--4-4--4-4--4-4--4-4--4---|
|-----------------------------------------|-----------------------------------------|
|
|  E    E    E    E    E    E    E    E      E    E    E    E    E    E    E    E
|----------------11-----------------------|----------------11-----------------------|
|-------------------------------14--------|-------------------------------14--------|
|---------------------13------------------|---------------------13------------------|
|-----------13-------------11--------11---|-----------13-------------11--------11---|
|------11---------------------------------|------11---------------------------------|
|-12--------------------------------------|-12--------------------------------------|


  F#add11
  S S S S S S S S S S S S S S E   S S S S S S S S S S S S S S E
|-------------------------------|----------------------------------|
|-------------------------------|----------------------------------|
|-3-3-3-3-3-3-3-3-3-3-3-3-3-3-3-|-3-3-3-3-3-3-3-3-3-3-3-3-3-3-3----|
|-4-4-4-4-4-4-4-4-4-4-4-4-4-4-4-|-4-4-4-4-4-4-4-4-4-4-4-4-4-4-4----|
|-2-2-2-2-2-2-2-2-2-2-2-2-2-2-2-|-2-2-2-2-2-2-2-2-2-2-2-2-2-2-2----|
|-2-2-2-2-2-2-2-2-2-2-2-2-2-2-2-|-2-2-2-2-2-2-2-2-2-2-2-2-2-2-2----|
|
| E   E   E   E   E   E   E   E   E   E   E   E   E   E   E   E
|-------------------------------|----------------------------------|
|-------------------------------|----------------------------------|
|-------------6-----------4-----|-------------6-----------4--------|
|---------4-------4-------------|---------4-------4----------------|
|-2---6---------------6-------6-|-2---6---------------6-------6----|
|-------------------------------|----------------------------------|


  Badd11/C#
   S S  S S  S S  S S  S S  S S  S S  S S
|-----------------------------------------|
|--4-4--4-4--4-4--4----4-4--4----4-4--4---|
|--4-4--4-4--4-4--4----4-4--4----4-4--4---|
|--2-2--2-2--2-2--2----2-2--2----2-2--2---|
|--4-4--4-4--4-4--4----4-4--4----4-4--4---|
|-----------------------------------------|
|
|  E    E    E    E    E    E    E    E
|----------------11-----------------------|
|-------------------------------14--------|
|---------------------13------------------|
|-----------13-------------11--------11---|
|------11---------------------------------|
|-12--------------------------------------|


   S S  S S  S S  S S  S S  S S  S S  S S
|-----------------------------------------|
|--4-4--4-4--4-4--4----4-4--4----4-4--4---|
|--4-4--4-4--4-4--4----4-4--4----4-4--4---|
|--2-2--2-2--2-2--2----2-2--2----2-2--2---|
|--4-4--4-4--4-4--4----4-4--4----4-4--4---|
|-----------------------------------------|
|
|  E    E    E    E    E    E    E    E
|----------------11-----------------------|
|-------------------------------14--------|
|---------------------13------------------|
|-----------13-------------11--------11---|
|------11---------------------------------|
|-12--------------------------------------|


  F#add11
  E. E. E +H       E. E. E +H       E. E. E E. E. E   E. E. E H
|----------------|----------------|-----------------|--------------|
|----------------|----------------|-----------------|--------------|
|-3--3--3-(3)----|-3--3--3-(3)----|-3--3--3-3--3--3-|-3--3--3-3----|
|-4--4--4-(4)----|-4--4--4-(4)----|-4--4--4-4--4--4-|-4--4--4-4----|
|-2--2--2-(2)----|-2--2--2-(2)----|-2--2--2-2--2--2-|-2--2--2-2----|
|-2--2--2-(2)----|-2--2--2-(2)----|-2--2--2-2--2--2-|-2--2--2-2----|


   >
  +W           +W
|------------|--------*|
|------------|--------*|
|-(3)--------|-(3)----*|
|-(4)--------|-(4)----*|
|-(2)--------|-(2)----*|
|-(2)--------|-(2)----*|


Self-inflicted or not, I find myself on the farthest star, foreign to everything like I woke up with a German tongue.

User avatar
Scott
Legend
Posts: 540
Joined: Sat Aug 02, 2008 11:33 am
Location: Maryland
Contact:

Re: Admit It!!!

Postby Scott » Sun Aug 03, 2008 11:03 pm

Self-inflicted or not, I find myself on the farthest star, foreign to everything like I woke up with a German tongue.


Return to “...Is A Real Boy”

Who is online

Users browsing this forum: No registered users and 1 guest