Woe

User avatar
steveo
Legend
Posts: 89
Joined: Sat Aug 02, 2008 4:46 pm

Woe

Postby steveo » Sun Aug 03, 2008 1:23 am

Max MTV Acoustic Version

Code: Select all

Say Anything
"Woe"
Tabbed by: P. Zach Ali and Jesse August
Email:pza151@stu.aii.edu

This tab is from the acoustic set he plays on mtvLIVE.COM you can find
these songs to play along with at
http://www.mtv.com/music/#/music/live/detail.jhtml?contentId=1525316


Tuning:Normal

  {INTRO}
e|---------------------------------------------------------------------------|
B|--7------------------------------------------------------------------------|
G|--7------------------------------------------------------------------------|
D|--5------------------------------------------------------------------------|
A|--5------------------------------------------------------------------------|
E|---------------------------------------------------------------------------|
  THIS SONG IS CALLED WOE

  {VERSE}
e|-----------------------------------------------------------------------------|
B|-----------------------------7-----------------------------------------------|
G|-----4-----------------------x------------------------5-5--4-4---------------|
D|-----5--(4 times)-------5----5---(4 TIMES)------------5-5--5-5--(2 times)----|
A|-----5------------------7-----------------------------X-X--X-X---------------|
E|--3--------------------x0-----------------------------5-5--5-5---------------|
  ALL THE WORDS...   THAT THE SCENE DEEMED...   BEND IT TOGETHER...

e|---X-------------------------------------------------------------------------|
B|---X-------------------------------------------------------------------------|
G|---5-------------------------------------------------------------------------|
D|---4--(GO TO MTV.COM LINK ABOVE FOR RHYTM OF GUITAR)-------------------------|
A|---5-------------------------------------------------------------------------|
E|---X-------------------------------------------------------------------------|
  AND ROLL BLOODILY THROUGH...

  {CHORUS}
e|---------------------------------------------------------X-----------------|
B|---------------------------------------------------------X-----------------|
G|----5---4---5---4-----------------4----5---4---5---4-----7-----------------|
D|----------------------4---5---7--------------------------7-----------------|
A|------0---0---0---0-----5---5---5---5----0---0---0---0---5-----------------|
E|---------------------------------------------------------X-----------------|
  GOT WOE, WOE HO HO, HE LIVES WITH WOE...         STRUM

  REPEAT VERSE PART AGAIN, AND THEN CHORUS ON MORE TIME

  {BREAK}
e|--------------------------------------X--------------------------------------|
B|--------------------------------------5--------------------------------------|
G|--5-5--4-4----------------------------5--------------------------------------|
D|--5-5--5-5---(2 TIMES)----------------4--------------------------------------|
A|--X-X--X-X----------------------------5--------------------------------------|
E|--5-5--5-5----------------------------X--------------------------------------|
  I CAN'T GET LAID IN THIS TOWN...   POINTY F*IN SHOES...

e|--------------------------------------X--------------------------------------|
B|--------------------------------------5--------------------------------------|
G|--5-5--4-4----------------------------5--------------------------------------|
D|--5-5--5-5---(2 TIMES)----------------4--------------------------------------|
A|--X-X--X-X----------------------------5--------------------------------------|
E|--5-5--5-5----------------------------X--------------------------------------|
  FEET ARE SO BLACK AND BLUE...      AND SO ARE YOU...

 {BREAK 2}
e|--X-X---------X-X-----------X-X----------X-X--X------------------------------|
B|--X-X---------X-X-----------X-X----------X-X--X------------------------------|
G|--7-7---------7-7-----------7-7----------7-7--7------------------------------|
D|--5-5---------5-5-----------5-5----------5-5--5------REPEAT AS NECESSARY-----|
A|--3-3---------5-5-----------7-7----------5-5--5H7----------------------------|
E|--X-X---------3-3-----------X-X----------X-X--X------------------------------|
  OUT OF MY..   BODY   UP.. THROUGH  THE.. PALM TREES    TO...

  {END}
e|-X-X---------------3-3-----X-------------------------------------------------|
B|-X-X---------------3-3-----X-------------------------------------------------|
G|-5-5--~4B----------4-4-----7-------------------------------------------------|
D|-5-5---------------5-5-----7----REPEAT AS NECESSARY--------------------------|
A|-X-X---------------5-5-----5-------------------------------------------------|
E|-5-5---------------3-3-----X-------------------------------------------------|
  SO NOW I'M FORGING AHEAD...

END WITH THE {BREAK 2} CHORDS AND IF YOU WATCH MTVLIVE.COM YOULL SEE HE DOES
SOMETHING FUN AT THE END- IF YOU CAN'T FIGURE IT OUT ON YOUR OWN- EMAIL ME AND
I WILL TAB IT FOR YOU

ANY QUESTIONS, COMMENTS OR CORRECTIONS EMAIL ME PLEASE



| /  slide up
|   slide down
| h  hammer-on
| p  pull-off
| ~  vibrato
| +  harmonic
| x  Mute note
Image
Oh, I'll be around to pick your pretty heart right off the ground when all this
fucking fashion brings you down.
http://www.purevolume.com/stevearuilioistheman

Return to “...Is A Real Boy”

Who is online

Users browsing this forum: No registered users and 2 guests