Alive With The Glory of Love

User avatar
steveo
Moderator
Posts: 89
Joined: Sat Aug 02, 2008 4:46 pm

Alive With The Glory of Love

Postby steveo » Sun Aug 03, 2008 1:25 am

Max Acoustic Version

Code: Select all

Say Anything
"Alive with the Glory of Love" (Max Acoustic)
Tabbed by: Scott Rome
http://www.playsa.net

Note: I am tabbing out the basics. Any extra notes Max plays in between chords is random and therefore should be added on your own when you feel they belong.

Note: Max changes the key of this song everytime I see him play it. He also changed parts between playing it, so watch the videos to see exactly what I mean on certain parts. I am tabbing out an acoustic version in the key of the album, so this will also work as a tab for the album version's rhythm but will have no other guitar parts.


e|-0~-|
B|-0~-|
G|-7~-|
D|-6~-|
A|-7~-|
E|----|

When I watch you...

(Occasionally Max adds the 9th fret on the B string during the E)

e|--------------------------------------------------------------------|
B|--------------------------------------------------------------------|
G|-7-7-7--6-6--6-6--6-6-6--6-6--6-6--6-6-6--6-6--6-7--9-9-9--9-9--9-9-|
D|-7-7-7--7-7--7-7--7-7-7--7-7--7-7-------------------9-9-9--9-9--9-9-|
A|------------------5-5-5--5-5--5-5--7-7-7--7-7--7-7--7-7-7--7-7--7-7-|
E|-7-7-7--7-7--7-7-------------------5-5-5--5-5--5-5------------------|

e|--------------------------------------------------------------------|
B|--------------------------------------------------------------------|
G|-7-7-7--6-6--6-6--6-6-6--6-6--6-6--9-9-9--9-9--9-9--9-9-9--9-9--9-9-|
D|-7-7-7--7-7--7-7--7-7-7--7-7--7-7--7-7-7--7-7--7-7--9-9-9--6-6--6-6-|
A|------------------5-5-5--5-5--5-5--9-9-9--9-9--9-9--7-7-7--7-7--7-7-|
E|-7-7-7--7-7--7-7----------------------------------------------------|

e|--------------------------------------------------------------------|
B|--------------------------------------------------------------------|
G|-7-7-7--6-6--6-6--6-6-6--6-6--6-6--6-6-6--6-6--6-7--9-9-9--9-9--9-9-|
D|-7-7-7--7-7--7-7--7-7-7--7-7--7-7-------------------9-9-9--9-9--9-9-|
A|------------------5-5-5--5-5--5-5--7-7-7--7-7--7-7--7-7-7--7-7--7-7-|
E|-7-7-7--7-7--7-7-------------------5-5-5--5-5--5-5------------------|

e|-----------------------------------------------------------------------|
B|-----------------------------------------------------------------------|
G|-7-7-7--6-6--6-6--6-6-6--6-6--6-6------9-9------9-9-------9-9------9-9-|
D|-7-7-7--7-7--7-7--7-7-7--7-7--7-7------7-7------7-7-------7-7------7-7-|
A|------------------5-5-5--5-5--5-5--9-9------9-9-------7-7------7-7-----|
E|-7-7-7--7-7--7-7-------------------------------------------------------|

No! I wont let them...

(Here are the chords for the chorus, see video for strumming pattern.
You may also let the e and B strings ring open during most of this.
Max switches on and off doing that)



e|------|-----|--------|---------------------------|
B|------|-----|--------|---------------------------|
G|---9--|--9--|--9--9--|--7-7-6-6-6-6-6-6-6-6-6-6--|
D|---7--|--7--|--9--6--|--7-7-7-7-9-9-7-7-7-7-7-7--|
A|---5--|--9--|--7--7--|--------------0-0-0-0-0-0--|
E|---5--|-----|--------|--7-7-7-7-7-7-0-0-0-0-0-0--|

e|------|-----|--------|--------------x-x-x-x-x-x--|
B|------|-----|--------|--------------x-x-x-x-x-x--|
G|---9--|--9--|--9--9--|--7-7-6-6-6-6-x-x-x-x-x-x--|
D|---7--|--7--|--9--6--|--7-7-7-7-9-9-x-x-x-x-x-x--|
A|---5--|--9--|--7--7--|--------------x-x-x-x-x-x--|
E|---5--|-----|--------|--7-7-7-7-7-7-x-x-x-x-x-x--|

Instrumental Bridge



e|--------------------------------------------------------------------------------|
B|--------------------------------------------------------------------------------|
G|-6--7-7--6-7-7-7-7-7-7-6-6--6-7-7--6-7-7-7-7-7-7-7-7--7-6-6----6-6-6-6-6-6-7--9-|
D|-7--7-7--7-7-7-7-7-7-7-7-7--7-7-7--7-7-7-7-7-7-7-7-7---------9----------------9-|
A|----------------------------5-5-5--5-5-5-5-5-5-5-5-5--7-7-7--7-7-7-7-7-7-7-7--7-|
E|-7--7-7--7-7-7-7-7-7-7-7-7----------------------------5-5-5--5-5-5-5-5-5-5-5----|

And when our city...

e|--------------------------------------------------------------------|
B|--------------------------------------------------------------------|
G|-7-7-7--6-6--6-6--6-6-6--6-6--6-6--6-6-6--6-6--6-7--9-9-9--9-9--9-9-|
D|-7-7-7--7-7--7-7--7-7-7--7-7--7-7-------------------9-9-9--9-9--9-9-|
A|------------------5-5-5--5-5--5-5--7-7-7--7-7--7-7--7-7-7--7-7--7-7-|
E|-7-7-7--7-7--7-7-------------------5-5-5--5-5--5-5------------------|

e|--------------------------------------------------------------------|
B|--------------------------------------------------------------------|
G|-7-7-7--6-6--6-6--6-6-6--6-6--6-6--9-9-9--9-9--9-9--9-9-9--9-9--9-9-|
D|-7-7-7--7-7--7-7--7-7-7--7-7--7-7--7-7-7--7-7--7-7--9-9-9--6-6--6-6-|
A|------------------5-5-5--5-5--5-5--9-9-9--9-9--9-9--7-7-7--7-7--7-7-|
E|-7-7-7--7-7--7-7----------------------------------------------------|

But Miss Black Eyeliner...



e|------------------------------------------------|
B|------------------------------------------------|
G|-7--x-6-6---6--x-6-6--6--x-6-6--9-9-9--9-9--9-9-|
D|-7--x-7-7---7--x-7-7------------9-9-9--9-9--9-9-|
A|------------5--x-5-5--7--x-7-7--7-7-7--7-7--7-7-|
E|-7--x-7-7-------------5----5-5------------------|

e|----------------------------------------------------------------------|
B|----------------------------------------------------------------------|
G|-7-7-6-6-7-7-6-6-7-7-6-6-7-7-6-6------9-9------9-9-------9-9------9-9-|
D|-7-7-7-7-7-7-7-7-7-7-7-7-7-7-7-7------7-7------7-7-------7-7------7-7-|
A|-----------------5-5-5-5-5-5-5-5--9-9------9-9-------7-7------7-7-----|
E|-7-7-7-7-7-7-7-7------------------------------------------------------|

No! I won't let them take you...

e|------|-----|--------|---------------------------|
B|------|-----|--------|---------------------------|
G|---9--|--9--|--9--9--|--7-7-6-6-6-6-6-6-6-6-6-6--|
D|---7--|--7--|--9--6--|--7-7-7-7-9-9-7-7-7-7-7-7--|
A|---5--|--9--|--7--7--|--------------0-0-0-0-0-0--|
E|---5--|-----|--------|--7-7-7-7-7-7-0-0-0-0-0-0--|

e|------|-----|--------|---------------------------|
B|------|-----|--------|---------------------------|
G|---9--|--9--|--9--9--|--7-7-6-6-6-6--------------|
D|---7--|--7--|--9--6--|--7-7-7-7-9-9--------------|
A|---5--|--9--|--7--7--|--------------7-7-7-7-7-7--|
E|---5--|-----|--------|--7-7-7-7-7-7-5-5-5-5-5-5--|

Breakdown



e|-----|
B|-----|
G|--6--|
D|--7--|
A|--5--|
E|-----|

Our Treblinka...

e|-------|--x-|
B|-------|--x-|
G|--6-6~-|--x-|
D|--7----|--x-|
A|--5----|--x-|
E|-------|--x-|

Instrumental Bridge

(When this part is played faster the second time, Max normally does
not keep playing the melody over top of the chords, but for fun we will.)


                         
e|--------------------------------------------------------------------------------0---------------------|
B|--------------------------------------------------------------------------------0---------------------|
G|-6--7-7--6-7-7-7-7-7-7-6-6--6-7-7--6-7-7-7-7--6-6-4-4--7-6-6----6-6-6-6---------1---------------------|
D|-7--7-7--7-7-7-7-7-7-7-7-7--7-7-7--7-7-7-7-7--6-6-4-4--------9----------6-6-4-4-2--strum me a bit-----| x2 faster
A|----------------------------5-5-5--5-5-5-5-5--4-4-2-2--7-7-7-7-7-7-7-7--6-6-4-4-2---------------------|
E|-7--7-7--7-7-7-7-7-7-7-7-7-----------------------------5-5-5-5-5-5-5-5--4-4-2-2-0---------------------|


Should they catch us...



e|---------------------------|
B|---------------------------|
G|-7-7-----6-6----6-6---9-9--|
D|-7-7-----7-7----------9-9--|
A|---------5-5----7-7---7-7--|
E|-7-7------------5-5--------|

e|-------------------------------------------------|
B|-------------------------------------------------|
G|-7-7--6-6---6-6--6-6--9-9--9-9---9-9-9--9-9--9-9-|
D|-7-7--7-7---7-7--7-7--7-7--7-7---9-9-9--6-6--6-6-|
A|------------5-5--5-5--9-9--9-9---7-7-7--7-7--7-7-|
E|-7-7--7-7----------------------------------------|

Should they kill me...

e|--------------------------------------------------------------------|
B|--------------------------------------------------------------------|
G|-7-7-7--6-6--6-6--6-6-6--6-6--6-6--6-6-6--6-6--6-7--9-9-9--9-9--9-9-|
D|-7-7-7--7-7--7-7--7-7-7--7-7--7-7-------------------9-9-9--9-9--9-9-|
A|------------------5-5-5--5-5--5-5--7-7-7--7-7--7-7--7-7-7--7-7--7-7-|
E|-7-7-7--7-7--7-7-------------------5-5-5--5-5--5-5------------------|

e|----------------------------------------------------------------------|
B|----------------------------------------------------------------------|
G|-7-7-6-6-7-7-6-6-7-7-6-6-7-7-6-6------9-9------9-9-------9-9------9-9-|
D|-7-7-7-7-7-7-7-7-7-7-7-7-7-7-7-7------7-7------7-7-------7-7------7-7-|
A|-----------------5-5-5-5-5-5-5-5--9-9------9-9-------7-7------7-7-----|
E|-7-7-7-7-7-7-7-7------------------------------------------------------|

Alive!!




e|------|-----|------|---------------------------|
B|------|-----|------|---------------------------|
G|---9--|--9--|--9---|--7-7-6-6-6-6-6-6-6-6-6-6--|
D|---7--|--7--|--9---|--7-7-7-7-9-9-7-7-7-7-7-7--|
A|---5--|--9--|--7---|--------------0-0-0-0-0-0--|
E|---5--|-----|------|--7-7-7-7-7-7-0-0-0-0-0-0--|

No! I won't let them take you..

e|------|-----|--------|---------------------------|
B|------|-----|--------|---------------------------|
G|---9--|--9--|--9--9--|--7-7-6-6-6-6-6-6-6-6-6-6--|
D|---7--|--7--|--9--6--|--7-7-7-7-9-9-7-7-7-7-7-7--|
A|---5--|--9--|--7--7--|--------------0-0-0-0-0-0--|
E|---5--|-----|--------|--7-7-7-7-7-7-0-0-0-0-0-0--|

Hell no noooooo!



e|------|-----|--------|---------------------------|
B|------|-----|--------|------------------------5--|
G|---9--|--9--|--9--9--|--7-7-6-6-6-6-6-6-6-6-6-6--|
D|---7--|--7--|--9--6--|--7-7-7-7-9-9-7-7-7-7-7-7--|
A|---5--|--9--|--7--7--|---------------------------|
E|---5--|-----|--------|--7-7-7-7-7-7-5-5-5-5-5-5--|

Download this Tab
Image
Oh, I'll be around to pick your pretty heart right off the ground when all this
fucking fashion brings you down.
http://www.purevolume.com/stevearuilioistheman

User avatar
Scott
Site Admin
Posts: 540
Joined: Sat Aug 02, 2008 11:33 am
Location: Maryland
Contact:

Re: Alive With The Glory of Love

Postby Scott » Mon Aug 04, 2008 1:42 pm

















Self-inflicted or not, I find myself on the farthest star, foreign to everything like I woke up with a German tongue.

User avatar
What Say You
Posts: 15
Joined: Thu Aug 07, 2008 10:18 pm
Location: Caro, MI
Contact:

Re: Alive With The Glory of Love

Postby What Say You » Sun Aug 10, 2008 9:24 am

Image

"Milk Was a Bad Choice"

User avatar
the futile
Posts: 63
Joined: Sun Aug 10, 2008 7:56 pm

Re: Alive With The Glory of Love

Postby the futile » Mon Aug 11, 2008 1:40 am

is anyone gonna tab the acoustic version with the actual chords?
You've got to go with the motion, oh
Can you feel it in your bones?

User avatar
steveo
Moderator
Posts: 89
Joined: Sat Aug 02, 2008 4:46 pm

Re: Alive With The Glory of Love

Postby steveo » Mon Aug 11, 2008 1:44 am

this is the acoustic
Image
Oh, I'll be around to pick your pretty heart right off the ground when all this
fucking fashion brings you down.
http://www.purevolume.com/stevearuilioistheman

User avatar
the futile
Posts: 63
Joined: Sun Aug 10, 2008 7:56 pm

Re: Alive With The Glory of Love

Postby the futile » Mon Aug 11, 2008 1:47 am

steveo wrote:this is the acoustic

i'm sure i've seen him play it up at 5 before.
You've got to go with the motion, oh
Can you feel it in your bones?

User avatar
steveo
Moderator
Posts: 89
Joined: Sat Aug 02, 2008 4:46 pm

Re: Alive With The Glory of Love

Postby steveo » Mon Aug 11, 2008 1:59 am

the futile wrote:
steveo wrote:this is the acoustic

i'm sure i've seen him play it up at 5 before.



in eb tuning
Image
Oh, I'll be around to pick your pretty heart right off the ground when all this
fucking fashion brings you down.
http://www.purevolume.com/stevearuilioistheman

User avatar
the futile
Posts: 63
Joined: Sun Aug 10, 2008 7:56 pm

Re: Alive With The Glory of Love

Postby the futile » Mon Aug 11, 2008 1:59 am

steveo wrote:
the futile wrote:
steveo wrote:this is the acoustic

i'm sure i've seen him play it up at 5 before.



in eb tuning


makes sense,
You've got to go with the motion, oh
Can you feel it in your bones?

User avatar
Scott
Site Admin
Posts: 540
Joined: Sat Aug 02, 2008 11:33 am
Location: Maryland
Contact:

Re: Alive With The Glory of Love

Postby Scott » Mon Aug 11, 2008 2:38 am

the futile wrote:
steveo wrote:this is the acoustic

i'm sure i've seen him play it up at 5 before.



My version is actually the acoustic version... tuned to the album. Live he is in Eb normally, and he moves everything up there to be based around the 5th fret, and sometimes the 6th. The tab I have posted I say is based around the 7th fret to give you an idea. So you're correct, and when I cover it, I play my tab down 2 frets.
Self-inflicted or not, I find myself on the farthest star, foreign to everything like I woke up with a German tongue.


Return to “...Is A Real Boy”

Who is online

Users browsing this forum: No registered users and 1 guest