Belt

User avatar
Scott
Site Admin
Posts: 540
Joined: Sat Aug 02, 2008 11:33 am
Location: Maryland
Contact:

Belt

Postby Scott » Sun Aug 03, 2008 10:54 pm

Code: Select all

Say Anything
"Belt"
Tabbed by: Adrian Amador
Corrections by: Scott Rome

All Guitars in Standard Tuning.

  Q=157
        Em/G C#5   B5C#5   B5  C#5   B5C#5E5C#5B5
 4/4
  Gtr I
|-------0--|-----------------|-------------------|
|-------0--|-----------------|-------------------|
|-------0--|-----x-------x---|-----x------9------|
|----------|-11--x-9-11--x-9-|-11--x-9-11-9-11-9-|
|----------|-11--x-9-11--x-9-|-11--x-9-11---11-9-|
|----------|--9--x-9--9--x-9-|--9--x-9--9----9-9-|
|
| Gtr II
|----------|-----------------|-------------------|
|----------|-----------------|-------------------|
|----------|-----------------|-------------------|
|----------|-----------------|-------------------|
|----------|-----------------|-------------------|
|----------|-----------------|-------------------|


  C#5   B5C#5   B5  C#5   B5C#5E5F#5
                                      ~~~~
|-----------------|----------------------|
|-----------------|----------------------|
|-----x-------x---|-----x------9-11-(11)-|
|-11--x-9-11--x-9-|-11--x-9-11-9-11-(11)-|
|-11--x-9-11--x-9-|-11--x-9-11-----------|
|--9--x-9--9--x-9-|--9--x-9--9-----------|
|
|-----------------|----------------------|
|-----------------|----------------------|
|-----x-------x---|-----x------9-11------|
|-11--x-9-11--x-9-|-11--x-9-11-9-11------|
|-11--x-9-11--x-9-|-11--x-9-11-----------|
|--9--x-9--9--x-9-|--9--x-9--9-----------|


  C#5   B5C#5   B5  C#5   B5C#5E5C#5B5  B5/E                   C#mE5F#5/C#
|-----------------|-------------------|---------------|-----------------------|
|-----------------|-------------------|---------------|-----------------------|
|-----x-------x---|-----x------9------|---------------|-----------9-11b11.5---|
|-11--x-9-11--x-9-|-11--x-9-11-9-11-9-|-9--x-9-9--x-9-|-9--x-9-11-9-11b11.5---|
|-11--x-9-11--x-9-|-11--x-9-11---11-9-|-9--x-9-9--x-9-|-9--x-9-11-------------|
|--9--x-9--9--x-9-|--9--x-9--9----9-9-|-0--x-0-0--x-0-|-0--x-0--0-------------|
|
|-----------------|-------------------|---------------|-----------------------|
|-----------------|-------------------|---------------|-----------------------|
|-----x-------x---|-----x------9------|---------------|-----------9-11b11.5---|
|-11--x-9-11--x-9-|-11--x-9-11-9-11-9-|-9--x-9-9--x-9-|-9--x-9-11-9-11b11.5---|
|-11--x-9-11--x-9-|-11--x-9-11---11-9-|-9--x-9-9--x-9-|-9--x-9-11-------------|
|--9--x-9--9--x-9-|--9--x-9--9----9-9-|-0--x-0-0--x-0-|-0--x-0--0-------------|


  C#5   B5C#5   B5  C#5   B5C#5E5C#5B5
|-----------------|-------------------|
|-----------------|-------------------|
|-----x-------x---|-----x------9------|
|-11--x-9-11--x-9-|-11--x-9-11-9-11-9-|
|-11--x-9-11--x-9-|-11--x-9-11---11-9-|
|--9--x-9--9--x-9-|--9--x-9--9----9-9-|
|
|-----------------|-------------------|
|-----------------|-------------------|
|-----x-------x---|-----x------9------|
|-11--x-9-11--x-9-|-11--x-9-11-9-11-9-|
|-11--x-9-11--x-9-|-11--x-9-11---11-9-|
|--9--x-9--9--x-9-|--9--x-9--9----9-9-|


  B5/EC#mB5/E  C#mB5/E  C#m/E B5/EC#m/E B5/E
|-------------------|----------------------|
|-------------------|----------------------|
|-------------------|----------------------|
|-9-9-11-9-9-9-11-9-|-9-11-11-9-9-11-11-9--|
|-9-9-11-9-9-9-11-9-|-9-11-11-9-9-11-11-9--|
|-0-0--0-0-0-0--0-0-|-0--0--0-0-0--0--0-0--|
|
|-------------------|----------------------|
|-------------------|----------------------|
|-------------------|----------------------|
|-9-9-11-9-9-9-11-9-|-9-11-11-9-9-11-11-9--|
|-9-9-11-9-9-9-11-9-|-9-11-11-9-9-11-11-9--|
|-0-0--0-0-0-0--0-0-|-0--0--0-0-0--0--0-0--|


 Verse
  C#5                       G#/C
|-----------|---9---------|-------------|-8----(8)-8-8-8--|
|-----------|---9---------|-------------|-9----(9)-9-9-9--|
|-----------|-------------|-------------|-9----(9)-9-9-9--|
|-11--------|-------------|--10---------|-----------------|
|-11--------|-------------|--11---------|-----------------|
|--9--------|-------------|---8---------|-----------------|
|
|-----------|-------------|-------------|-----------------|
|-----------|-------------|-------------|-----------------|
|-----------|-------------|-------------|-----------------|
|-----------|-------------|-------------|-----------------|
|-11--------|-(11)--------|-(11)--------|-----------------|
|--9--------|--(9)--------|--(8)--------|-----------------|


  F#5                  E5   A5  E5G5E5            Bsus2/C# B5
   PM---------|             PM|
|-------------------------|---------------------|-------------------|
|-------------------------|---------------------|-------------------|
|-11-11-11-11-11-11-11--9-|---------------------|-------------------|
|-11-11-11-11-11-11-11--9-|-9-9-9S0--2--2--2--2-|-9-9-9-9---9--9--9-|
|--9--9--9--9--9--9--9--7-|-7-7-7S0--2--2--2--2-|-----------9--9--9-|
|-------------------------|-5-5-5S0--0--0--0--0-|-9-9-9-9---7--7--7-|
|
|-------------------------|---------------------|-------------------|
|-------------------------|---------------------|-------------------|
|----------------14-14-13-|---------16-16-16-16-|----------11-11-11-|
|-------------------------|---------------------|-------------------|
|----------------12-12-11-|---------14-14-14-14-|-----------9--9--9-|
|-------------------------|---------------------|-------------------|


  C#5                          G#/C
|-------------|---------9----|-------------|-8-8-8-8-8-8--|
|-------------|---------9----|-------------|-9-9-9-9-9-9--|
|-------------|--------------|-------------|-9-9-9-9-9-9--|
|--11---------|-(11)---------|--10---------|--------------|
|--11---------|-(11)---------|--11---------|--------------|
|---9---------|--(9)---------|---8---------|--------------|
|
|-------------|--------------|-------------|-8-8-8-8-8-8--|
|-------------|--------------|-------------|-9-9-9-9-9-9--|
|-------------|--------------|-------------|-9-9-9-9-9-9--|
|-------------|--------------|-------------|--------------|
|-(11)--------|-(11)---------|-(11)--------|--------------|
|---9---------|--(9)---------|--(8)--------|--------------|


  F#5                  E5  A5  E5G5E5        E5/C# B/C#  E5/C#   B/C#B     N.C.
   PM---------|            PM|
|------------------------|-----------------|-----------------|----------------|
|------------------------|-----------------|-----------------|----------------|
|-11-11-11-11-11-11-11-9-|-----------------|-9-9-9-8-8-8-9-9-|-9-8-8-8--8--8--|
|-11-11-11-11-11-11-11-9-|-9-9-9S0-2-2-2-2-|-9-9-9-9-9-9-9-9-|-9-9-9-9--9--9--|
|--9--9--9--9--9--9--9-7-|-7-7-7S0-2-2-2-2-|-----------------|----------------|
|------------------------|-5-5-5S0-0-0-0-0-|-9-9-9-9-9-9-9-9-|-9-9-9-9--7--7--|
|
|-----------------5--5-4-|---------7-7-7-7-|-----------------|----------------|
|-----------------x--x-x-|---------x-x-x-x-|---5-----4---4-5-|-------4--4-----|
|-----------------2--2-1-|---------4-4-4-4-|-----4-----4-----|-4---4-4--4-----|
|------------------------|-----------------|-2-----2---------|---2------------|
|------------------------|-----------------|-----------------|----------------|
|------------------------|-----------------|-----------------|----------------|


 Pre-Chorus
       A/C# E/B       A/C# E/B       A/C# E/B         B5    N.C.
|---------------|--------------|--------------|----------------|
|---------------|--------------|--------------|----------------|
|---11----------|----------x-4-|---6------x-4-|---6------------|
|-----------x-6-|---7------x-x-|----------x-x-|-------9--9--9--|
|-9----9----x-x-|----------x-2-|-4---4----x-2-|-4---4-9--9-----|
|-----------x-4-|-5---5--------|--------------|-------7--7--7--|
|
|------5----4---|-----5----4---|-----5----4---|-x-x-x-------x--|
|------5----5---|-----5----5---|-----5----5---|-x-x-x-7--5--x--|
|------6----4---|-----6----4---|-----6----4---|-x-x-x-------x--|
|---------------|--------------|--------------|----------------|
|---------------|--------------|--------------|----------------|
|---------------|--------------|--------------|----------------|


       A/C# E/B        D5/E
|---------------|-------------|
|---------------|-------------|
|---11----------|------<7>----|
|-----------x-6-|-7----<7>----|
|-9----9----x-x-|-x----<7>----|
|-----------x-4-|-5-----------|
|
|-x--x-5----4-2-|-4-----------|
|-x--x-5----5---|------<7>----|
|-x--x-6----4---|------<7>----|
|---------------|------<7>----|
|---------------|-------------|
|---------------|-------------|


   Break
                     1.
    C#5 B5  C#5 B5    C#5 B5  A5    E5
||------------------|-----------------|-------0------0--|-----0----x-x-x-x-x--||
||o-----------------|-----------------|-------0------0--|-----0----x-x-x-x-x-o||
||------------------|-----------------|-------x------x--|-----x----x-x-x-x-x--||
||--11---9--11---9--|-11---9--9-9-9-2-|--2--2----2-2----|-2-2----2-x-x-x-x-x--||
||o-11---9--11---9--|-11---9--7-7-7-2-|-(2)-2----2-2----|-2-2----2-x-x-x-x-x-o||
||---9---7---9---7--|--9---7--5-5-5-0-|-(0)-0----0-0----|-0-0----0-x-x-x-x-x--||
|
||------------------|-----------------|-------0------0--|-----0----x-x-x-x-x--||
||o-----------------|-----------------|-------0------0--|-----0----x-x-x-x-x-o||
||--13--11--13--11--|-13--11--9-9-9-4-|-(4)------4-4----|-4-4----4-x-x-x-x-x--||
||---x---x---x---x--|--x---x--x-x-x-x-|-(x)------x-x----|-x-x----x-x-x-x-x-x--||
||o-11---9--11---9--|-11---9--7-7-7-2-|-(2)------2-2----|-2-2----2-x-x-x-x-x-o||
||------------------|-----------------|-----------------|----------x-x-x-x-x--||


  2.
  C#5 B5  E5/A  B             E5/B            B   E5/B
|-----------------|---------------------|-------------------|
|---------------0-|-(0)-0-4-4-5-5-5-(5)-|-(5)-4-4-5-5-5-5-5-|
|---------------4-|-(4)-4-4-4-4-4-4-(4)-|-(4)-4-4-4-4-4-4-4-|
|-11---9--9-9-9-2-|-----2-2-2-2-2-2-----|-----2-2-2-2-2-2-2-|
|-11---9--7-7-7-2-|-(2)-2-2-2-2-2-2-(2)-|-(2)-2-2-2-2-2-2-2-|
|--9---7--5-5-5-0-|-----0-0-0-0-0-0-----|-----0-0-0-0-0-0-0-|
|
|-----------------|---------------------|-------------------|
|-----------------|---------------------|-------------------|
|-13--11--9-9-9-4-|-(4)---4---4---4-----|--4--4-4-4-4-4-4-4-|
|--x---x--x-x-x-x-|-(x)---x---x---x-----|--x--x-x-x-x-x-x-x-|
|-11---9--7-7-7-2-|-(2)---2---2---2-----|--2--2-2-2-2-2-2-2-|
|-----------------|---------------------|-------------------|


 Verse
  N.C.      C#m/Ab        N.C.     C
|-----------------------|----------------------|
|-----------------------|----------------------|
|-x----------9--9--9--9-|----------------------|
|---11------11-11-11-11-|--11------11-11-11-11-|
|------11---11-11-11-11-|-----11---10-10-10-10-|
|---------9-------------|--------9-------------|
|
|-----------------------|----------------------|
|------------5--5--5--5-|----------------------|
|------------6--6--6--6-|-----------6--6--6--6-|
|------------6--6--6--6-|-----------5--5--5--5-|
|-----------------------|----------------------|
|-----------------------|----------------------|


  N.C.      C#m/Ab        N.C.      C
|-----------------------|------------------------|
|-----------------------|------------------------|
|------------9--9--9--9-|------------------------|
|---11------11-11-11-11-|---11------11-11-11-11--|
|------11---11-11-11-11-|------11---10-10-10-10--|
|-8-------8-------------|-8-------8--------------|
|
|-----------------------|------------------------|
|------------5--5--5--5-|------------------------|
|------------6--6--6--6-|------------6--6--6--6--|
|------------6--6--6--6-|------------5--5--5--5--|
|-----------------------|------------------------|
|-----------------------|------------------------|


  F#5                  E5   A5  E5G5E5            Bsus2/C#  B5
   PM---------|             PM|
|-------------------------|---------------------|--------------------|
|-------------------------|---------------------|--------------------|
|-11-11-11-11-11-11-11--9-|----------4--4--4--4-|---------x----------|
|-11-11-11-11-11-11-11--9-|-9-9-9S0--2--2--2--2-|-9-9-9-9-x--9--9--9-|
|--9--9--9--9--9--9--9--7-|-7-7-7S0--2--2--2--2-|---------x--9--9--9-|
|-------------------------|-5-5-5S0--0--0--0--0-|-9-9-9-9----7--7--7-|
|
|-------------------------|---------------------|--------------------|
|-------------------------|---------------------|--------------------|
|----------------14-14-13-|---------16-16-16-16-|-----------11-11-11-|
|-----------------x--x--x-|----------x--x--x--x-|------------x--x--x-|
|----------------12-12-11-|---------14-14-14-14-|------------9--9--9-|
|-------------------------|---------------------|--------------------|


        C#5/Ab
   PM|       PM|         PM|       PM|
|--------9---------9--|--------9---------9--|
|--------9---------9--|--------9---------9--|
|--------x---------x--|--------x---------x--|
|-11-11-11--11-11-11--|-11-11-11--11-11-11--|
|-11-11-----11-11-----|-11-11-----11-11-----|
|--9--9------9--9-----|--9--9------9--9-----|
|
|--------9---------9--|--------9---------9--|
|--------9---------9--|--------9---------9--|
|---------------------|---------------------|
|---------------------|---------------------|
|---------------------|---------------------|
|---------------------|---------------------|


|-----------------|----------------------|
|-----------------|----------------------|
|-----------------|----------------------|
|-----------------|----------------------|
|-----11------11--|---11-11-11-11-9-7-0--|
|-8-8-----8-8-----|-8--------------------|
|
|------9-------9--|----9--9--9--9-9-9-9--|
|------9-------9--|----9--9--9--9-9-9-9--|
|-----------------|----------------------|
|-----------------|----------------------|
|-----------------|----------------------|
|-----------------|----------------------|


    F#5               E5   A5  E5 G5E5
     PM------|             PM|
|------------------------|----------------------|
|------------------------|----------------------|
|---11-11-11-11-11-11--9-|-----------4--4--4--4-|
|---11-11-11-11-11-11--9-|-9-9-9\-0--2--2--2--2-|
|-7--9--9--9--9--9--9--7-|-7-7-7\-0--2--2--2--2-|
|------------------------|-5-5-5\-0--0--0--0--0-|
|
|------------------------|----------------------|
|------------------------|----------------------|
|---------------14-14-13-|----------16-16-16-16-|
|----------------x--x--x-|-----------x--x--x--x-|
|---------------12-12-11-|----------14-14-14-14-|
|------------------------|----------------------|


  E5/C# B/C#  E5/C#       B      A5/B
|-----------------|---------------5--|
|-----------------|---------------5--|
|-9-9-9-8-8-8-9-9-|---9-9-9-8-8---4--|
|-9-9-9-9-9-9-9-9-|---9-9-9-9-9------|
|-----------------|------------------|
|-9-9-9-9-9-9-9-9-|---9-9-9-7-7------|
|
|-----------------|------------------|
|---5-----4---4-5-|-------4---4------|
|-----4-----4-----|-4---4-4---4--14--|
|-2-----2---------|---2-----------x--|
|-----------------|--------------12--|
|-----------------|------------------|


 Pre-Chorus
                 E/B E5/B           B  E5/B
|--(5)--5--5---5--4----|-----------------|
|--(5)--5--5---5--5--5-|-(5)-5-5--5-4--5-|
|--(4)--4--4---4--4--4-|-(4)-4-4--4-4--4-|
|----------------------|-----------------|
|----------------------|-----------------|
|----------------------|-----------------|
|
|----------------------|-----------------|
|----------------------|-----------------|
|--11--11-11--11-----9-|-----------------|
|--11--11-11--11-----9-|--9--9-9--9----9-|
|---9---9--9---9-----7-|--7--7-7--7----7-|
|----------------------|--5--5-5--5----5-|
|
|----------------------|-----------------|
|----------------------|-----------------|
|-(14)-14-14--14-13--9-|-(9)-9-9--9-8--9-|
|--(x)--x--x---x--x--x-|-(x)-x-x--x-x--x-|
|-(12)-12-12--12-11--7-|-(7)-7-7--7-6--7-|
|----------------------|-----------------|


             B  E5/B        B       A5/B
|-----------------|------------------5--|
|-(5)-5-5--5-4--5-|-(5)-5-5-4---4----5--|
|-(4)-4-4--4-4--4-|-(4)-4-4-4---4----4--|
|-----------------|---------------------|
|-----------------|---------------------|
|-----------------|---------------------|
|
|-----------------|---------------------|
|-----------------|---------------------|
|--9--9-9--9----9-|--9--9-9---8---8-11--|
|--9--9-9--9----9-|--9--9-9---9---9-11--|
|-----------------|------------------9--|
|--9--9-9--9----7-|--9--9-9---7---7-----|
|
|-----------------|---------------------|
|-----------------|---------------------|
|-(9)-9-9--9-8--9-|-(9)-9-9-8---8---14--|
|-(x)-x-x--x-x--x-|-(x)-x-x-9---9----x--|
|-(7)-7-7--7-6--7-|-(7)-7-7---------12--|
|-----------------|---------------------|


                 E/B B             A5
                                   PM--|
|--(5)--5--5---5--4----|-----------------|
|--(5)--5--5---5--5--0-|-(0)-0-0-0-------|
|--(4)--4--4---4--4--4-|-(4)-4-4-4-------|
|----------------------|-----------9-9-9-|
|----------------------|-----------7-7-7-|
|----------------------|-----------5-5-5-|
|
|----------------------|-----------------|
|----------------------|-----------------|
|-(11)-11-11--11-----9-|-----------------|
|-(11)-11-11--11-----9-|--9--9-9-9-------|
|--(9)--9--9---9-----7-|--7--7-7-7-------|
|----------------------|--5--5-5-5-------|
|
|                                  PM--|
|----------------------|-----------------|
|----------------------|-----------------|
|--14--14-14--14-13--9-|-(9)-9-9-9-------|
|---x---x--x---x--x--x-|-(x)-x-x-x-9-9-9-|
|--12--12-12--12-11--7-|-(7)-7-7-7-7-7-7-|
|----------------------|-----------5-5-5-|


 Chorus
  E5                B5/E    B/E       A5 E5/A        A5 E5/A
|-----------------|-----------------|----0--0-0-0--|----0--0-0-0---|
|-----------------|-----------------|----0--0-0-0--|----0--0-0-0---|
|-9-9-9-9-9-9-9-9-|-9-9-9-9-9-9-9-9-|--------------|---------------|
|-9-9-9-9-9-9-9-9-|-9-9-9-9-9-9-9-9-|-9--9--9-9-9--|-9--9--9-9-9---|
|-7-7-7-7-7-7-7-7-|-9-9-9-9-6-6-6-6-|-7--7--7-7-7--|-7--7--7-7-7---|
|-0-0-0-0-0-0-0-0-|-0-0-0-0-0-0-0-0-|-5--5--5-5-5--|-5--5--5-5-5---|
|
|-----------------|-----------------|----0--0-0-0--|----0--0-0-0---|
|-----------------|-----------------|----0--0-0-0--|----0--0-0-0---|
|-9-9-9-9-9-9-9-9-|-9-9-9-9-9-9-9-9-|--------------|---------------|
|-9-9-9-9-9-9-9-9-|-9-9-9-9-9-9-9-9-|-9--9--9-9-9--|-9--9--9-9-9---|
|-7-7-7-7-7-7-7-7-|-9-9-9-9-6-6-6-6-|-9--7--7-7-7--|-7--7--7-7-7---|
|-0-0-0-0-0-0-0-0-|-0-0-0-0-0-0-0-0-|-5--5--5-5-5--|-5--5--5-5-5---|


  E5                B5/E    E             A5 E5/A                  Esus2/B
|-----------------|---------------------|----0--0-0-0--|-(0)-0-0-0-0-0-0-0--|
|-----------------|---------------------|----0--0-0-0--|-(0)-0-0-0-0-0-0-0--|
|-9-9-9-9-9-9-9-9-|-9-9-9-9--9--9--9--9-|--------------|--------------------|
|-9-9-9-9-9-9-9-9-|-9-9-9-9--9--9--9--9-|-9--9--9-9-9--|-(9)-9-9-9-9-9-9-9--|
|-7-7-7-7-7-7-7-7-|-9-9-9-9-11-11-11-11-|-7--7--7-7-7--|-(7)-7-7-7-9-9-9-9--|
|-0-0-0-0-0-0-0-0-|-0-0-0-0--0--0--0--0-|-5--5--5-5-5--|-(5)-5-5-5-7-7-7-7--|
|
|-----------------|---------------------|----0--0-0-0--|-(0)-0-0-0-0-0-0-0--|
|-----------------|---------------------|----0--0-0-0--|-(0)-0-0-0-0-0-0-0--|
|-9-9-9-9-9-9-9-9-|-9-9-9-9--9--9--9--9-|--------------|--------------------|
|-9-9-9-9-9-9-9-9-|-9-9-9-9--9--9--9--9-|-9--9--9-9-9--|-(9)-9-9-9-9-9-9-9--|
|-7-7-7-7-7-7-7-7-|-9-9-9-9-11-11-11-11-|-7--7--7-7-7--|-(7)-7-7-7-9-9-9-9--|
|-0-0-0-0-0-0-0-0-|-0-0-0-0--0--0--0--0-|-5--5--5-5-5--|-(5)-5-5-5-7-7-7-7--|


  C#m7                       Esus2/B
|----------------------|---------------------|
|--9-------------------|-(7)-9-7-9-9S10--9-7S|
|------9-------9-----9-|---------------------|
|--------9-11----11----|---------------------|
|----------------------|---------------------|
|----------------------|---------------------|
|
|--0---0----0--0--0--0-|--x--0-0-0----0--0-0-|
|--0---0----0--0--0--0-|--x--0-0-0----0--0-0-|
|----------------------|--x------------------|
|-11--11---11-11-11-11-|--x--9-9-9----9--9-9-|
|-11--11---11-11-11-11-|--x--9-9-9----9--9-9-|
|--9---9----9--9--9--9-|-----7-7-7----7--7-7-|


  E5/A                      Esus2/B
  ~
|------------------|------------------|
|-9----------------|-10-0-9-0-7-9-7---|
|----9------9------|----------------9-|
|------9-11---11-9-|------------------|
|------------------|------------------|
|------------------|------------------|
|
|-0--0----0-0--0-0-|--x-0-0-0-0-0-0-0-|
|-0--0----0-0--0-0-|--x-0-0-0-0-0-0-0-|
|------------------|--x---------------|
|-9--9----9-9--9-9-|--x-9-9-9-9-9-9-9-|
|-7--7----7-7--7-7-|--x-7-7-9-9-9-9-9-|
|-5--5----5-5--5-5-|----5-5-7-7-7-7-7-|


  C#m7                       E5  Esus2/B
|----------------------|---------------------|
|--9-------------------|-(7)-9-7-9-9S10--9-7S|
|------9-------9-----9-|---------------------|
|--------9-11----11----|---------------------|
|----------------------|---------------------|
|----------------------|---------------------|
|
|--0---0----0--0--0--0-|--x--0-0-0----0--0-0-|
|--0---0----0--0--0--0-|--x--0-0-0----0--0-0-|
|----------------------|--x--9-9-------------|
|-11--11---11-11-11-11-|--x--9-9-9----9--9-9-|
|-11--11---11-11-11-11-|--x--7-7-9----9--9-9-|
|--9---9----9--9--9--9-|---------7----7--7-7-|


  E5/A                      Esus2/B
  ~
|------------------|------------------|
|-9----------------|-10-0-9-0-7-9-7---|
|----9------9------|----------------9-|
|------9-11---11-9-|------------------|
|------------------|------------------|
|------------------|------------------|
|
|-0--0----0-0--0-0-|--0-0-0-0-0-0-0-0-|
|-0--0----0-0--0-0-|--0-0-0-0-0-0-0-0-|
|------------------|------------------|
|-9--9----9-9--9-9-|--9-9-9-9-9-9-9-9-|
|-7--7----7-7--7-7-|--7-7-7-9-9-9-9-9-|
|-5--5----5-5--5-5-|--5-5-5-7-7-7-7-7-|


 Verse
  N.C.
   ~~~~~~~~~~~~~~~~~~~~~~~
|-------------------|------------------------------|
|-------------------|--------------/11\---/(11)\---|
|-(9)---------------|-(9)-----(9)\-----------------|
|-------------------|------------------------------|
|-------------------|------------------------------|
|-------------------|------------------------------|
|
|-------------------|------------------------------|
|-------------------|------------------------------|
|-------------------|------------------------------|
|-------------------|------------------------------|
|-------------------|------------------------------|
|--9--9-9-9-9-9-9-9-|--9--9-9--9-----9--9----9---9-|


|-----------------|------------x--------|
|-----------------|-----------<x>-------|
|-----------------|---------------------|
|-----------------|---------------------|
|-----------------|---------------1/----|
|-----------------|---------------------|
|
|-----------------|---------------------|
|-----------------|---------------------|
|-----------------|---------------------|
|-----------------|---------------------|
|-----------------|---------------------|
|-8-8-8-8-8-8-8-8-|-8-8-8-8-8--8--8--8--|


                                               B5
|-----------------|-----------------|----------------|
|-----------------|-----------------|----------------|
|-----------------|-----------------|----------------|
|-----------------|-----------------|----------9-9-9-|
|-9-9-9-9-9-9-9-9-|-----------------|----------9-9-9-|
|-----------------|-5-5-5-5-0-0-0-0-|-9-9-9-9--7-7-7-|
|
|-----------------|-----------------|----------------|
|-----------------|-----------------|----------------|
|-----------------|-----------------|----------------|
|-----------------|-----------------|----------------|
|-9-9-9-9-9-9-9-9-|-----------------|----------------|
|-----------------|-5-5-5-5-5-5-5-5-|-9-9-9-9--7-7-7-|


        C#5/Ab                C#5
  PM--|     PM--|       PM--|     PM--|
|--------9---------9--|--------9---------9--|
|--------9---------9--|--------9---------9--|
|---------------------|---------------------|
|---------------------|---------------------|
|---------------------|---------------------|
|-9-9-9-----9-9-9-----|-9-9-9-----9-9-9-----|
|
|-x-x-x--9--x-x-x--9--|-x-x-x--9--x-x-x--9--|
|-x-x-x--9--x-x-x--9--|-x-x-x--9--x-x-x--9--|
|-x-x-x-----x-x-x-----|-x-x-x-----x-x-x-----|
|-x-x-x-11--x-x-x-11--|-x-x-x-11--x-x-x-11--|
|---------------------|---------------------|
|---------------------|---------------------|


        G#/C
  PM--|     PM--|
|---------------------|---------------------------|
|---------------------|---------------------------|
|---------------------|---------------------------|
|---------------------|---------------------------|
|-------11--------11--|---11-11-11-11--9--7--0----|
|-8-8-8-----8-8-8-----|-8-------------------------|
|
|-x-x-x--9--x-x-x--9--|---------------------------|
|-x-x-x--9--x-x-x--9--|---------------------------|
|-x-x-x-----x-x-x-----|---------------------------|
|-x-x-x-11--x-x-x-11--|---------------------------|
|---------------------|-x-11-11-11-11-11-11-11----|
|---------------------|-x--8--8--8--8--8--8--8----|


  F#5                 E5   A5  E5 G5E5            E5/C#     B5
     PM------|             PM|
|------------------------|----------------------|--------------------|
|------------------------|----------------------|--------------------|
|---11-11-11-11-11-11--9-|-----------4--4--4--4-|-9-9-9-9-x----------|
|---11-11-11-11-11-11--9-|-9-9-9\-0--2--2--2--2-|-9-9-9-9-x--9--9--9-|
|-7--9--9--9--9--9--9--7-|-7-7-7\-0--2--2--2--2-|---------x--9--9--9-|
|------------------------|-5-5-5\-0--0--0--0--0-|-9-9-9-9----7--7--7-|
|
|------------------------|----------------------|--------------------|
|------------------------|----------------------|--------------------|
|---------------14-14-13-|----------16-16-16-16-|-----------11-11-11-|
|----------------x--x--x-|-----------x--x--x--x-|------------x--x--x-|
|---------------12-12-11-|----------14-14-14-14-|------------9--9--9-|
|------------------------|----------------------|--------------------|


  C#5                                   G#/C                   C#5/Ab
|------------------|--9---------------|------------------|------9-------9---|
|------------------|--9---------------|------------------|------9-------9---|
|------------------|------------------|------------------|------------------|
|-11---------------|-11---------------|------------------|------------------|
|-11---------------|-11---------------|-11---------------|-11------11-------|
|--9---------------|--9---------------|--8---------------|--8-------8-------|
|
|------------------|------------------|------------------|------------------|
|-----x--9---9---9-|-----x--9---9---9-|-----x--9---9---9-|------9-------9---|
|-----x-12--12--12-|-----x-12--12--12-|-----x-12--12--12-|-----12------12---|
|------------------|------------------|------------------|------------------|
|------------------|------------------|------------------|------------------|
|------------------|------------------|------------------|------------------|


  F#5                  E5   A5  E5 G5E5            E5/C#     B5
   PM---------|             PM|
|-------------------------|----------------------|--------------------|
|-------------------------|----------------------|--------------------|
|-11-11-11-11-11-11-11--9-|-----------4--4--4--4-|-9-9-9-9-x----------|
|-11-11-11-11-11-11-11--9-|-9-9-9\-0--2--2--2--2-|-9-9-9-9-x--9--9--9-|
|--9--9--9--9--9--9--9--7-|-7-7-7\-0--2--2--2--2-|---------x--9--9--9-|
|-------------------------|-5-5-5\-0--0--0--0--0-|-9-9-9-9----7--7--7-|
|
|-------------------------|----------------------|--------------------|
|-------------------------|----------------------|--------------------|
|----------------14-14-13-|----------16-16-16-16-|-----------11-11-11-|
|-----------------x--x--x-|-----------x--x--x--x-|------------x--x--x-|
|----------------12-12-11-|----------14-14-14-14-|------------9--9--9-|
|-------------------------|----------------------|--------------------|


  C#5
|-----------------------|-----------------------|
|-----------------------|-----------------------|
|-----------------------|-----------------------|
|-11-11---11-11-11---11-|-11-11---11-11-11---11-|
|-11-11---11-11-11---11-|-11-11---11-11-11---11-|
|--9--9----9--9--9----9-|--9--9----9--9--9----9-|
|
|-----------------------|-----------------------|
|-----------------------|-----------------------|
|--9--9-9--9--9--9-9--9-|--9--9-9--9--9--9-9--9-|
|-----------------------|-----------------------|
|--7--7-7--7--7--7-7--7-|--7--7-7--7--7--7-7--7-|
|-----------------------|-----------------------|


  G#/C
|-----------------------|------------------------|
|-----------------------|------------------------|
|-----------------------|------------------------|
|-10-10---10-10-10---10-|-10-10---10-10-10-10-x--|
|-11-11---11-11-11---11-|-11-11---11-11-11-11-x--|
|--8--8----8--8--8----8-|--8--8----8--8--8--8-x--|
|
|-----------------------|------------------------|
|-----------------------|------------------------|
|--8--8-8--8--8--8-8--8-|--8--8-8--8--8--8--8-8--|
|-----------------------|------------------------|
|--6--6-6--6--6--6-6--6-|--6--6-6--6--6--6--6-6--|
|-----------------------|------------------------|


                            A5
   PM-------------------------------------|
|-------------------------|-----------------|
|-------------------------|-----------------|
|-11-11-11-11-11-11-11-11-|-----------------|
|-11-11-11-11-11-11-11-11-|-9-9-9-9-9-9-9-9-|
|--9--9--9--9--9--9--9--9-|-7-7-7-7-7-7-7-7-|
|-------------------------|-5-5-5-5-5-5-5-5-|
|
|-------------------------|-----------------|
|-------------------------|-----------------|
|-14-14-14-14-14-14-14-14-|-8-8-8-8-8-8-8-8-|
|-------------------------|-----------------|
|-12-12-12-12-12-12-12-12-|-6-6-6-6-6-6-6-6-|
|-------------------------|-----------------|


  E5/C#                         A5/B
|-0-0-0-0-0-0-0-0-|-0------------5--|
|-0-0-0-0-0-0-0-0-|-0------------5--|
|-9-9-9-9-9-9-9-8-|-9------------4--|
|-9-9-9-9-9-9-9-9-|-9---------------|
|-----------------|------7s12\------|
|-9-9-9-9-9-9-9-9-|-9---------------|
|
|-----------------|-----------------|
|-----------------|-----------------|
|-9-9-9-9-9-9-9-9-|-9-----------14--|
|-----------------|--------------x--|
|-7-7-7-7-7-7-7-7-|-7----7s12\--12--|
|-----------------|-----------------|


 Pre-Chorus
                 E/B E5/B           B  E5/B
|--(5)--5--5---5--4----|-----------------|
|--(5)--5--5---5--5--5-|-(5)-5-5--5-4--5-|
|--(4)--4--4---4--4--4-|-(4)-4-4--4-4--4-|
|----------------------|-----------------|
|----------------------|-----------------|
|----------------------|-----------------|
|
|----------------------|-----------------|
|----------------------|-----------------|
|--11--11-11--11-----9-|-----------------|
|--11--11-11--11-----9-|--9--9-9--9----9-|
|---9---9--9---9-----7-|--7--7-7--7----7-|
|----------------------|--5--5-5--5----5-|
|
|----------------------|-----------------|
|----------------------|-----------------|
|-(14)-14-14--14-13--9-|-(9)-9-9--9-8--9-|
|--(x)--x--x---x--x--x-|-(x)-x-x--x-x--x-|
|-(12)-12-12--12-11--7-|-(7)-7-7--7-6--7-|
|----------------------|-----------------|


             B  E5/B        B       A5/B
|-----------------|------------------5--|
|-(5)-5-5--5-4--5-|-(5)-5-5-4---4----5--|
|-(4)-4-4--4-4--4-|-(4)-4-4-4---4----4--|
|-----------------|---------------------|
|-----------------|---------------------|
|-----------------|---------------------|
|
|-----------------|---------------------|
|-----------------|---------------------|
|--9--9-9--9----9-|--9--9-9---8---8-11--|
|--9--9-9--9----9-|--9--9-9---9---9-11--|
|-----------------|------------------9--|
|--9--9-9--9----7-|--9--9-9---7---7-----|
|
|-----------------|---------------------|
|-----------------|---------------------|
|-(9)-9-9--9-8--9-|-(9)-9-9-8---8---14--|
|-(x)-x-x--x-x--x-|-(x)-x-x-9---9----x--|
|-(7)-7-7--7-6--7-|-(7)-7-7---------12--|
|-----------------|---------------------|


                 E/B B             A5
                                   PM--|
|--(5)--5--5---5--4----|-----------------|
|--(5)--5--5---5--5--0-|-(0)-0-0-0-------|
|--(4)--4--4---4--4--4-|-(4)-4-4-4-------|
|----------------------|-----------9-9-9-|
|----------------------|-----------7-7-7-|
|----------------------|-----------5-5-5-|
|
|----------------------|-----------------|
|----------------------|-----------------|
|-(11)-11-11--11-----9-|-----------------|
|-(11)-11-11--11-----9-|--9--9-9-9-------|
|--(9)--9--9---9-----7-|--7--7-7-7-------|
|----------------------|--5--5-5-5-------|
|
|                                  PM--|
|----------------------|-----------------|
|----------------------|-----------------|
|--14--14-14--14-13--9-|-(9)-9-9-9-------|
|---x---x--x---x--x--x-|-(x)-x-x-x-9-9-9-|
|--12--12-12--12-11--7-|-(7)-7-7-7-7-7-7-|
|----------------------|-----------5-5-5-|


 Chorus
  E5                B5/E    B/E       A5 E5/A        A5 E5/A
|-----------------|-----------------|----0--0-0-0--|----0--0-0-0---|
|-----------------|-----------------|----0--0-0-0--|----0--0-0-0---|
|-9-9-9-9-9-9-9-9-|-9-9-9-9-9-9-9-9-|--------------|---------------|
|-9-9-9-9-9-9-9-9-|-9-9-9-9-9-9-9-9-|-9--9--9-9-9--|-9--9--9-9-9---|
|-7-7-7-7-7-7-7-7-|-9-9-9-9-6-6-6-6-|-7--7--7-7-7--|-7--7--7-7-7---|
|-0-0-0-0-0-0-0-0-|-0-0-0-0-0-0-0-0-|-5--5--5-5-5--|-5--5--5-5-5---|
|
|-----------------|-----------------|----0--0-0-0--|----0--0-0-0---|
|-----------------|-----------------|----0--0-0-0--|----0--0-0-0---|
|-9-9-9-9-9-9-9-9-|-9-9-9-9-9-9-9-9-|--------------|---------------|
|-9-9-9-9-9-9-9-9-|-9-9-9-9-9-9-9-9-|-9--9--9-9-9--|-9--9--9-9-9---|
|-7-7-7-7-7-7-7-7-|-9-9-9-9-6-6-6-6-|-7--7--7-7-7--|-7--7--7-7-7---|
|-0-0-0-0-0-0-0-0-|-0-0-0-0-0-0-0-0-|-5--5--5-5-5--|-5--5--5-5-5---|


  E5                B5/E    E             A5 E5/A                  Esus2/B
|-----------------|---------------------|----0--0-0-0--|-(0)-0-0-0-0-0-0-0--|
|-----------------|---------------------|----0--0-0-0--|-(0)-0-0-0-0-0-0-0--|
|-----------------|---------------------|--------------|--------------------|
|-9-9-9-9-9-9-9-9-|-9-9-9-9--9--9--9--9-|-9--9--9-9-9--|--9--9-9-9-9-9-9-9--|
|-7-7-7-7-7-7-7-7-|-9-9-9-9-11-11-11-11-|-7--7--7-7-7--|--7--7-7-7-9-9-9-9--|
|-0-0-0-0-0-0-0-0-|-0-0-0-0--0--0--0--0-|-5--5--5-5-5--|--5--5-5-5-7-7-7-7--|
|
|-----------------|---------------------|----0--0-0-0--|-(0)-0-0-0-0-0-0-0--|
|-----------------|---------------------|----0--0-0-0--|-(0)-0-0-0-0-0-0-0--|
|-9-9-9-9-9-9-9-9-|-9-9-9-9--9--9--9--9-|--------------|--------------------|
|-9-9-9-9-9-9-9-9-|-9-9-9-9--9--9--9--9-|-9--9--9-9-9--|--9--9-9-9-9-9-9-9--|
|-7-7-7-7-7-7-7-7-|-9-9-9-9-11-11-11-11-|-7--7--7-7-7--|--7--7-7-7-9-9-9-9--|
|-0-0-0-0-0-0-0-0-|-0-0-0-0--0--0--0--0-|-5--5--5-5-5--|--5--5-5-5-7-7-7-7--|


  C#m7                       Esus2/B
|----------------------|---------------------|
|--9-------------------|-(7)-9-7-9-9S10--9-7S|
|------9-------9-----9-|---------------------|
|--------9-11----11----|---------------------|
|----------------------|---------------------|
|----------------------|---------------------|
|
|--0---0----0--0--0--0-|--x--0-0-0----0--0-0-|
|--0---0----0--0--0--0-|--x--0-0-0----0--0-0-|
|----------------------|--x------------------|
|-11--11---11-11-11-11-|--x--9-9-9----9--9-9-|
|-11--11---11-11-11-11-|--x--9-9-9----9--9-9-|
|--9---9----9--9--9--9-|-----7-7-7----7--7-7-|


  E5/A                        Esus2/B
  ~
|------------------|------------------|
|-9----------------|-10-0-9-0-7-9-7---|
|----9------9------|----------------9-|
|------9-11---11-9-|------------------|
|------------------|------------------|
|------------------|------------------|
|
|-0--0----0-0--0-0-|--x-0-0-0-0-0-0-0-|
|-0--0----0-0--0-0-|--x-0-0-0-0-0-0-0-|
|------------------|--x---------------|
|-9--9----9-9--9-9-|--x-9-9-9-9-9-9-9-|
|-7--7----7-7--7-7-|--x-7-7-7-9-9-9-9-|
|-5--5----5-5--5-5-|----5-5-5-7-7-7-7-|


  C#m7                       E5  Esus2/B
|----------------------|---------------------|
|--9-------------------|-(7)-9-7-9-9S10--9-7S|
|------9-------9-----9-|---------------------|
|--------9-11----11----|---------------------|
|----------------------|---------------------|
|----------------------|---------------------|
|
|--0---0----0--0--0--0-|--x--0-0-0----0--0-0-|
|--0---0----0--0--0--0-|--x--0-0-0----0--0-0-|
|----------------------|--x--9-9-------------|
|-11--11---11-11-11-11-|--x--9-9-9----9--9-9-|
|-11--11---11-11-11-11-|--x--7-7-9----9--9-9-|
|--9---9----9--9--9--9-|---------7----7--7-7-|


                     H.=H
  E5/A               E5/A     Esus2/B
  ~
|------------------|------------------|
|-9----------------|-10-0-9-0-7-9-7---|
|----9------9------|----------------9-|
|------9-11---11-9-|------------------|
|------------------|------------------|
|------------------|------------------|
|
|-0--0----0-0--0-0-|--0-0-0-0-0-0-0-0-|
|-0--0----0-0--0-0-|--0-0-0-0-0-0-0-0-|
|------------------|------------------|
|-9--9----9-9--9-9-|--9-9-9-9-9-9-9-9-|
|-7--7----7-7--7-7-|--7-7-7-7-9-9-9-9-|
|-5--5----5-5--5-5-|--5-5-5-5-7-7-7-7-|


 Breakdown
  Q=109
  N.C.
  Gtr III
|-------------|------------------|-------------|-------------------|
|-------------|------------------|-------------|-------------------|
|-------------|------------------|-------------|-------------------|
|---9-----9---|---9-----9------9-|---9-----9---|---9-----9------9--|
|-------------|-7-----7---9s11---|-------------|-7-----7---9s11----|
|-9-----5-----|------------------|-9-----5-----|-------------------|
|
| Gtr IV
|-------------|------------------|-------------|-------------------|
|-------------|------------------|-------------|-------------------|
|-------------|------------------|-------------|-------------------|
|---9-----9---|---9-----9------9-|---9-----9---|---9-----9------9--|
|-------------|-7-----7---9s11---|-------------|-7-----7---9s11----|
|-9-----5-----|------------------|-9-----5-----|-------------------|


                                                  Q=129
                                                                E5/B
                                                  Gtr I
|---------------|------9--------|---------------|----------------0--0-----|
|-------------9-|-------------9-|-------------9-|----------------0--0-----|
|------9--------|---------------|------9--------|-------------------------|
|---9------9----|---9------9----|---9------9----|-------------------------|
|--------0------|-7------7------|--------0------|-------------------------|
|-9-------------|---------------|-9-------------|-------------------------|
|
|                                                 Gtr II
|---------------|------9--------|-------------9-|-------------------------|
|-------------9-|-------------9-|------9--------|-------------------------|
|------9--------|---------------|---------------|-9-11-11-13-13-14-14-13--|
|---9------9----|---9------9----|---9------9----|-------------------------|
|--------0------|-7------7------|--------0------|-7--9--9-11-11-12-12-11--|
|-9-------------|---------------|-9-------------|-------------------------|


  C#5         A5          E5            D/A
   PM---------------------------------|
|-----------------------|----------------------|
|-----------------------|---------------<7>----|
|-----------------------|---------------<7>----|
|-11-11-------9-9-------|-2-2-------2-2-<7>----|
|-11-11-------7-7-------|-2-2-------2-2--------|
|--9--9-------5-5-------|-0-0-------0-0--------|
|
|-----------------------|----------------------|
|-----------------------|----------------------|
|-------13--------13----|-----13--------13--14-|
|----------14--------14-|--------14------------|
|-----------------------|----------------------|
|-----------------------|----------------------|


  C#5         A5          E5              C5/G
   PM----------------------------------|
|-----------------------|-------------------------|
|-----------------------|-------------------------|
|-----------------------|-----------------<5>-----|
|-11-11-------9-9-------|-2-2--------2--2-<5>-----|
|-11-11-------7-7-------|-2-2--------2--2---------|
|--9--9-------5-5-------|-0-0--------0--0---------|
|
|-----------------------|-------------------------|
|-----------------------|-------------------------|
|-------13--------13----|-----13----13-14-13------|
|----------14--------14-|--------14-----------14--|
|-----------------------|-------------------------|
|-----------------------|-------------------------|


  C#5         A5          E5
|-----------------------|-----------------------|
|-----------------------|-----------------------|
|-----------------------|-4-4--x--x--4--4--x--x-|
|-11-11--x--x-9-9--x--x-|-2-2--x--x--2--2--x--x-|
|-11-11--x--x-7-7--x--x-|-2-2--x--x--2--2--x--x-|
|--9--9--x--x-5-5--x--x-|-0-0--x--x--0--0--x--x-|
|
|-----------------------|-----------------------|
|-----------------------|-----------------------|
|-------13--------13----|-----13----13-14-13----|
|----------14--------14-|--------14----------14-|
|-----------------------|-----------------------|
|-----------------------|-----------------------|


  H=H
  C#5         A5            E5                N.C.
                             <
   PM--------------------------------|
|-------------------------|---------------------------|
|-------------------------|---------------------------|
|-------------------------|--4--4--4--4--4--4---------|
|-11-11-11-11--9--9--9--9-|--2--2--2--2--2--2---------|
|-11-11-11-11--7--7--7--7-|--2--2--2--2--2--2---------|
|--9--9--9--9--5--5--5--5-|--0--0--0--0--0--0--9\-----|
|
|-------------------------|---------------------------|
|-------------------------|---------------------------|
|-13----13----13----13----|-13----13----13----13------|
|----14----14----14----14-|----14----14----14-----14--|
|-------------------------|---------------------------|
|-------------------------|---------------------------|


 Outro
  Q=135
  C#m7      E5/A          E
|--0---0--0--0--0--0--0-|--0---0--0--0--0--0--0-|
|--0---0--0--0--0--0--0-|--0---0--0--0--0--0--0-|
|-----------------------|--1---1--1--1--1--1--1-|
|-11--11-11--9--9--9--9-|--2---2--2--2--2--2--2-|
|-11--11-11--7--7--7--7-|--2---2--2--2--2--2--2-|
|--9---9--9--5--5--5--5-|--0---0--0--0--0--0--0-|
|
|-12--12-12-12-12-12-12-|-12--12-12-12-12-12-12-|
|-12--12-12-12-12-12-12-|-12--12-12-12-12-12-12-|
|-14--14-14-14-14-14-14-|-13--13-13-13-13-13-13-|
|-14--14-14-14-14-14-14-|-14--14-14-14-14-14-14-|
|-----------------------|-----------------------|
|-----------------------|-----------------------|


  C#m7      E5/A          E
|--0---0--0--0--0--0--0-|--0---0--0--0--0--0--0--|
|--0---0--0--0--0--0--0-|--0---0--0--0--0--0--0--|
|-----------------------|--1---1--1--1--1--1--1--|
|-11--11-11--9--9--9--9-|--2---2--2--2--2--2--2--|
|-11--11-11--7--7--7--7-|--2---2--2--2--2--2--2--|
|--9---9--9--5--5--5--5-|--0---0--0--0--0--0--0--|
|
|-12--12-12-12-12-12-12-|-12--12-12-12-12-12-12--|
|-12--12-12-12-12-12-12-|-12--12-12-12-12-12-12--|
|-14--14-14-14-14-14-14-|-13--13-13-13-13-13-13--|
|-14--14-14-14-14-14-14-|-14--14-14-14-14-14-14--|
|-----------------------|------------------------|
|-----------------------|------------------------|


  C#m7      E5/A          E
|--0---0--0--0--0--0--0-|--0---0--0--0--0--0--0-|
|--0---0--0--0--0--0--0-|--0---0--0--0--0--0--0-|
|--6---6--6--4--4--4--4-|--1---1--1--1--1--1--1-|
|--6---6--6--2--2--2--2-|--2---2--2--2--2--2--2-|
|--4---4--4--0--0--0--0-|--2---2--2--2--2--2--2-|
|-----------------------|--0---0--0--0--0--0--0-|
|
|-12--12-12-12-12-12-12-|-12--12-12-12-12-12-12-|
|-12--12-12-12-12-12-12-|-12--12-12-12-12-12-12-|
|-14--14-14-14-14-14-14-|-13--13-13-13-13-13-13-|
|-14--14-14-14-14-14-14-|-14--14-14-14-14-14-14-|
|-----------------------|-----------------------|
|-----------------------|-----------------------|


  C#m7      E5/A          E
|--0---0--0--0--0--0--0-|--0----0--0--0--0-0--0--|
|--0---0--0--0--0--0--0-|--0----0--0--0--0-0--0--|
|--6---6--6--4--4--4--4-|--1----1--1--1--1-1--1--|
|--6---6--6--2--2--2--2-|--2----2--2--2--2-2--2--|
|--4---4--4--0--0--0--0-|--2----2--2--2--2-2--2--|
|-----------------------|--0----0--0--0--0-0--0--|
|
|-12--12-12-12-12-12-12-|------------------------|
|-12--12-12-12-12-12-12-|------------------------|
|-14--14-14-14-14-14-14-|-13------13-------------|
|-14--14-14-14-14-14-14-|----14------16-14---16--|
|-----------------------|------------------------|
|-----------------------|------------------------|


  C#m7        E5/A          E
|--0--0--0--0--0--0--0--0-|--0--0--0--0--0--0--0--0-|
|--0--0--0--0--0--0--0--0-|--0--0--0--0--0--0--0--0-|
|-------------------------|--1--1--1--1--1--1--1--1-|
|-11-11-11-11--9--9--9--9-|--2--2--2--2--2--2--2--2-|
|-11-11-11-11--7--7--7--7-|--2--2--2--2--2--2--2--2-|
|--9--9--9--9--5--5--5--5-|--0--0--0--0--0--0--0--0-|
|
|-12-12-12-12-12-12-12-12-|-12-12-12-12-12-12-12-12-|
|-12-12-12-12-12-12-12-12-|-12-12-12-12-12-12-12-12-|
|-14-14-14-14-14-14-14-14-|-13-13-13-13-13-13-13-13-|
|-14-14-14-14-14-14-14-14-|-14-14-14-14-14-14-14-14-|
|-------------------------|-------------------------|
|-------------------------|-------------------------|


  C#m7        E5/A          E
|--0--0--0--0--0--0--0--0-|--0--0--0--0-x-x-x-x-x-x-x-x--|
|--0--0--0--0--0--0--0--0-|--0--0--0--0-x-x-x-x-x-x-x-x--|
|-------------------------|--1--1--1--1-x-x-x-x-x-x-x-x--|
|-11-11-11-11--9--9--9--9-|--2--2--2--2-x-x-x-x-x-x-x-x--|
|-11-11-11-11--7--7--7--7-|--2--2--2--2-x-x-x-x-x-x-x-x--|
|--9--9--9--9--5--5--5--5-|--0--0--0--0-x-x-x-x-x-x-x-x--|
|
|-12-12-12-12-12-12-12-12-|-12-12-12-12-x-x-x-x-x-x-x-x--|
|-12-12-12-12-12-12-12-12-|-12-12-12-12-x-x-x-x-x-x-x-x--|
|-14-14-14-14-14-14-14-14-|-13-13-13-13-x-x-x-x-x-x-x-x--|
|-14-14-14-14-14-14-14-14-|-14-14-14-14-x-x-x-x-x-x-x-x--|
|-------------------------|------------------------------|
|-------------------------|------------------------------|


  C#m7        E5/A          E                         C#m7        E5/A
|--0--0--0--0--0--0--0--0-|--0--0--0--0--0--0--0--0-|--0--0--0--0--0--0--0-|
|--0--0--0--0--0--0--0--0-|--0--0--0--0--0--0--0--0-|--0--0--0--0--0--0--0-|
|-------------------------|--1--1--1--1--1--1--1--1-|----------------------|
|-11-11-11-11--9--9--9--9-|--2--2--2--2--2--2--2--2-|-11-11-11-11--9--9--9-|
|-11-11-11-11--7--7--7--7-|--2--2--2--2--2--2--2--2-|-11-11-11-11--7--7--7-|
|--9--9--9--9--5--5--5--5-|--0--0--0--0--0--0--0--0-|--9--9--9--9--5--5--5-|
|
|-12-12-12-12-12-12-12-12-|-12-12-12-12-12-12-12-12-|-12-12-12-12----------|
|-12-12-12-12-12-12-12-12-|-12-12-12-12-12-12-12-12-|-12-12-12-12----------|
|-14-14-14-14-14-14-14-14-|-13-13-13-13-13-13-13-13-|-14-14-14-14-13-13-13-|
|-14-14-14-14-14-14-14-14-|-14-14-14-14-14-14-14-14-|-14-14-14-14-14-14-14-|
|-------------------------|-------------------------|----------------------|
|-------------------------|-------------------------|----------------------|


  Q=138               Q=158
  E
|--0--------|--(0)------------------*|
|--0--------|--(0)------------------*|
|-13--------|-(13)----13-13-13-13\--*|
|-----------|-----------------------*|
|-11--------|-(11)----11-11-11-11\--*|
|--0--------|--(0)-----0--0--0--0---*|
|
|-----------|-----------------------*|
|-----------|-----------------------*|
|-----------|-----------------------*|
|-14--------|-(14)----14-14-14-14\--*|
|-11--------|-(11)----11-11-11-11\--*|
|--0--------|--(0)-----0--0--0--0---*|



Tablature Legend
----------------
 h   - hammer-on
 p   - pull-off
 b   - bend
 pb  - pre-bend
 r   - bend release (if no number after the r, then release immediately)
 /\  - slide into or out of (from/to "nowhere")
 s   - legato slide
 S   - shift slide
&lt;n&gt; - natural harmonic
[n]  - artificial harmonic
n(n) - tapped harmonic
 ~   - vibrato
 tr  - trill
 T   - tap
 TP  - trem. picking
 PM  - palm muting
\n/  - tremolo bar dip; n = amount to dip
 \n  - tremolo bar down
 n/  - tremolo bar up
/n\  - tremolo bar inverted dip
 =   - hold bend; also acts as connecting device for hammers/pulls
 &lt;&gt; - volume swell (louder/softer)
 x   - on rhythm slash represents muted slash
 o   - on rhythm slash represents single note slash

Misc Legend
-----------
 |  - bar
||  - double bar
||o - repeat start
o|| - repeat end
*|  - double bar (ending)
 :  - bar (freetime)
 $  - Segno
 &  - Coda
Self-inflicted or not, I find myself on the farthest star, foreign to everything like I woke up with a German tongue.

User avatar
Scott
Site Admin
Posts: 540
Joined: Sat Aug 02, 2008 11:33 am
Location: Maryland
Contact:

Re: Belt

Postby Scott » Sun Aug 03, 2008 10:57 pm

Self-inflicted or not, I find myself on the farthest star, foreign to everything like I woke up with a German tongue.

User avatar
the futile
Posts: 63
Joined: Sun Aug 10, 2008 7:56 pm

Re: Belt

Postby the futile » Sun Aug 10, 2008 8:51 pm





You've got to go with the motion, oh
Can you feel it in your bones?

The_Kevin_Divine
Posts: 8
Joined: Thu Aug 07, 2008 10:05 pm

Re: Belt

Postby The_Kevin_Divine » Sun Aug 10, 2008 9:18 pm

so i dont know if jeff knows this or not but hes good at guitar... :?
So boo don't front like you've not heard of us.

User avatar
the futile
Posts: 63
Joined: Sun Aug 10, 2008 7:56 pm

Re: Belt

Postby the futile » Mon Aug 11, 2008 12:34 am

The_Kevin_Divine wrote:so i dont know if jeff knows this or not but hes good at guitar... :?

who knows?
You've got to go with the motion, oh
Can you feel it in your bones?

User avatar
steveo
Moderator
Posts: 89
Joined: Sat Aug 02, 2008 4:46 pm

Re: Belt

Postby steveo » Mon Aug 11, 2008 12:36 am

Since in my opinion i think power tabs suck maybe someone can tab Jeff's video in sections

intro
verse 1
verse 2
etc...
Image
Oh, I'll be around to pick your pretty heart right off the ground when all this
fucking fashion brings you down.
http://www.purevolume.com/stevearuilioistheman

User avatar
the futile
Posts: 63
Joined: Sun Aug 10, 2008 7:56 pm

Re: Belt

Postby the futile » Mon Aug 11, 2008 12:36 am

steveo wrote:Since in my opinion i think power tabs suck maybe someone can tab Jeff's video in sections

intro
verse 1
verse 2
etc...


in my opinion powertabs should die
they're harder to read :(
You've got to go with the motion, oh
Can you feel it in your bones?

User avatar
steveo
Moderator
Posts: 89
Joined: Sat Aug 02, 2008 4:46 pm

Re: Belt

Postby steveo » Mon Aug 11, 2008 12:40 am

the futile wrote:
steveo wrote:Since in my opinion i think power tabs suck maybe someone can tab Jeff's video in sections

intro
verse 1
verse 2
etc...


in my opinion powertabs should die
they're harder to read :(



i agree but scott wont allow it
Image
Oh, I'll be around to pick your pretty heart right off the ground when all this
fucking fashion brings you down.
http://www.purevolume.com/stevearuilioistheman

User avatar
the futile
Posts: 63
Joined: Sun Aug 10, 2008 7:56 pm

Re: Belt

Postby the futile » Mon Aug 11, 2008 12:43 am

maybe they have their benefits
somehow.
You've got to go with the motion, oh
Can you feel it in your bones?

User avatar
Scott
Site Admin
Posts: 540
Joined: Sat Aug 02, 2008 11:33 am
Location: Maryland
Contact:

Re: Belt

Postby Scott » Mon Aug 11, 2008 2:02 am

they have their benefits when you use the powertab version.. untill someone tabs it off Jeff's videos we only have the powertab as the text version. even when we tab it out we'll leave the powertab up.. keeping a wealth of resources. i can read the powertab fine but I also have the program and can watch it... it makes more sense after seeing it.
Self-inflicted or not, I find myself on the farthest star, foreign to everything like I woke up with a German tongue.


Return to “...Is A Real Boy”

Who is online

Users browsing this forum: No registered users and 1 guest