Page 1 of 1

Spidersong

Posted: Sun Aug 03, 2008 11:00 pm
by Scott

Code: Select all

Say Anything
"Spidersong"
Tabbed by: Adrian Amador

All Guitars in Standard Tuning.

 Q=132
            A5/EC#m           G#m               E5    B/EbB5      E5
 2/4           4/4
  Gtr I

|-------------|-----------------|-----------------|-----------------|
|-------------|-5-5-5-5-5-5-5---|-----------------|-----------------|
|-------------|-6-6-6-6-6-6-6-4-|-4-4-4-4-4-4-4---|-----------------|
|-------------|-6-6-6-6-6-6-6-6-|-6-6-6-6-6-6-6-9-|-9-9-9-4-4-x-x-9-|
|-----------0-|-4-4-4-4-4-4-4-6-|-6-6-6-6-6-6-6-7-|-7-6-6-2-2-x-x-7-|
|-----------0-|---------------4-|-4-4-4-4-4-4-4---|-----------------|


     B/EbB5          C#5 C#m         G#m
              Gtr II

|------------------|-------------------|
|------------------|-----5-(5)-5-5-x---|
|------------------|-6-6-6--6--6-6-x-4-|
|-9--9-9-4-4-------|-6-6-6--6--6-6-x-6-|
|-7--6-6-2-2--/9\--|-4-4-4--4--4-4-x-6-|
|------------------|-----------------4-|
|
| Gtr III
|
|------------------|-------------------|
|------------------|-----5-(5)-5-5-x---|
|------------------|-6-6-6--6--6-6-x-4-|
|------------------|-6-6-6--6--6-6-x-6-|
|--------------9\--|-4-4-4--4--4-4-x-6-|
|------------------|-----------------4-|


                      E5    B/EbB5      E5

|-------4-(4)-4-(4)-4---|-----------------|
|-------4-(4)-4-(4)-4---|-----------------|
|-(4)-4-4--4--4--4--4---|-----------------|
|-(6)-6-6--6--6--6--6-9-|-9-9-9-4-4-x-x-9-|
|-(6)-6-6--6--6--6--6-7-|-7-6-6-2-2-x-x-7-|
|-(4)-4-4--4--4--4--4---|-----------------|
|
|
|-------4-(4)-4-(4)-4---|-----------------|
|-------4-(4)-4-(4)-4---|-----------------|
|-(4)-4-4--4--4--4--4---|-----------------|
|-(6)-6-6--6--6--6--6-9-|-9-9-9-4-4-x-x-9-|
|-(6)-6-6--6--6--6--6-7-|-7-6-6-2-2-x-x-7-|
|-(4)-4-4--4--4--4--4---|-----------------|


    B/EbB5      E5/B  D#5/B5/FF#5 E5  E5D#5/B5/FF#5 E5

|-----------------|-----------------|-----------------|
|-----------------|-----------------|-----------------|
|---------------9-|-9-8-8-4-4-------|-9-8-8-4-4-------|
|-9-9-9-4-4-x-x-9-|-9-8-8-4-4-4-4-2-|-9-8-8-4-4-4-4-2-|
|-7-6-6-2-2-x-x-7-|-7-6-6-2-2-4-4-2-|-7-6-6-2-2-4-4-2-|
|---------------7-|-7-6-6-2-2-2-2-0-|-7-6-6-2-2-2-2-0-|
|
|
|-----------------|-----------------|-----------------|
|-----------------|-----------------|-----------------|
|---------------9-|-9-8-8-4-4-------|-9-8-8-4-4-------|
|-9-9-9-4-4-x-x-9-|-9-8-8-4-4-4-4-2-|-9-8-8-4-4-4-4-2-|
|-7-6-6-2-2-x-x-7-|-7-6-6-2-2-4-4-2-|-7-6-6-2-2-4-4-2-|
|---------------7-|-7-6-6-2-2-2-2-0-|-7-6-6-2-2-2-2-0-|


 Verse
      B                B                B                 B     B/Ab

|----------------|----------------|-----------------|-----------------|
|-----4----x-4---|-----4----x-4---|-----4-----x-4---|-----4-----4---4-|
|-----4----x-4---|-----4----x-4---|-----4-----x-4---|-----4-----4---4-|
|----------------|----------------|-----------------|-----------------|
|-2-2----------4-|--------------4-|-----------------|-----------------|
|----------------|-2-2------------|-4-4-----------2-|-4-4---4-2-4-2-4-|
|
|
|----------------|----------------|-----------------|-----------------|
|-----4----x-4---|-----4----x-4---|---5-5---4-------|-----4-----------|
|-----4----x-4---|-----4----x-4---|-----------4-----|-------6---4-----|
|----------------|----------------|-------4-------4-|-6---------------|
|-2-2----------4-|--------------4-|-----------------|-----------------|
|----------------|-2-2------------|-4---------------|-----------------|


  B5/FB                B                   B                 B     B/Ab

|----------------|-------------------|-----------------|-----------------|
|-----4----x-4---|-----4----x---4----|-----4-----x-4---|-----4-----4---4-|
|-----4----x-4---|-----4----x---4----|-----4-----x-4---|-----4-----4---4-|
|----------------|-------------------|-----------------|-----------------|
|-2-2----------4-|-----------------4-|-----------------|-----------------|
|-2-2------------|-2-2---------------|-4-4-----------2-|-4-4---4-2-4-2-4-|
|
|
|----------------|-------------------|-----------------|-----------------|
|-----4----x-4---|-----4----x--------|-----------------|-----------------|
|-----4----x-4---|-----4----x--------|-----------------|-----------------|
|----------------|-------------------|-----9-----9-----|-9---9-----9---9-|
|-2-2----------4-|------------/16\---|---7---7-6---6-7-|---7---7-6---6---|
|----------------|-2-2---------------|-----------------|-----------------|


  B5/FB                B                B                  B     B/Ab

|----------------|----------------|------------------|-----------------|
|-----4----x-4---|-----4----x-4---|-----4------x-4---|-----4-----4---4-|
|-----4----x-4---|-----4----x-4---|-----4------x-4---|-----4-----4---4-|
|----------------|----------------|------------------|-----------------|
|-2-2----------4-|--------------4-|------------------|-----------------|
|-2-2------------|-2-2------------|-4-4------------2-|-4-4---4-2-4-2-4-|
|
|
|----------------|----------------|------------------|-----------------|
|-----4----x-4---|-----4----x-4---|---5-5----4-----5-|-5---4-----5-4---|
|-----4----x-4---|-----4----x-4---|------------4-----|-------4-------4-|
|----------------|----------------|--------4---------|---4-------------|
|-2-2----------4-|--------------4-|------------------|-----------------|
|----------------|-2-2------------|-4----------------|-----------------|


  B5/FB                B        F#5  G#5 B F#G#5 B F#5 G#5B5G#5F#G#5F#G#5B5
 
|----------------|-----------------|-----------------|---------------------|
|-----4----x-4---|-----4----x-4----|-----4-------4---|---------------------|
|-----4----x-4---|-----4----x-4----|-----4-------4---|---------------------|
|----------------|-----------------|-----------------|----4--------------4-|
|-2-2----------4-|---------------4-|-6-6---4-6-6---4-|--6-2--6-4--6-4--6-2-|
|-2-2------------|-2-2-----------2-|-4-4---2-4-4---2-|--4----4-2--4-2--4---|
|
|
|----------------|-----------------|-----------------|---------------------|
|-----4----x-4---|-----4----x-4----|-----------------|---------------------|
|-----4----x-4---|-----4----x-4----|-----------------|---------------------|
|----------------|-----------------|-9-------9-------|----9--------------9-|
|-2-2----------4-|--------------/7-|---7---6---6---9-|-11---11-9-11-9-11---|
|----------------|-2-2-------------|-----------------|---------------------|


 Chorus
  C#5   C#m       G#m                     E5
 
|-------------------|-------4-(4)-4-(4)-4---|
|-------5-5-5-5-x---|-------4-(4)-4-(4)-4---|
|--6--6-6-6-6-6-x-4-|-(4)-4-4--4--4--4--4---|
|--6--6-6-6-6-6-x-6-|-(6)-6-6--6--6--6--6-9-|
|--4--4-4-4-4-4-x-6-|-(6)-6-6--6--6--6--6-7-|
|-----------------4-|-(4)-4-4--4--4--4--4---|
|
|
|-------------------|-------4-(4)-4-(4)-4---|
|-------------------|-------4-(4)-4-(4)-4---|
|---------------x-4-|-(4)-4-4--4--4--4--4---|
|-11------------x-6-|-(6)-6-6--6--6--6--6-9-|
|---------------x-6-|-(6)-6-6--6--6--6--6-7-|
|---------------x-4-|-(4)-4-4--4--4--4--4---|


    B/EbB5      E5    B/EbB5      C#5
  E E E E E E E E   E E E E E E E E
|-----------------|-----------------|
|-----------------|-----------------|
|-----------------|---------------6-|
|-9-9-9-4-4-x-x-9-|-9-9-9-4-4-x-x-6-|
|-7-6-6-2-2-x-x-7-|-7-6-6-2-2-x-x-4-|
|-----------------|-----------------|
|
| E E E E E E E E   E E E E E E E E
|-----------------|-----------------|
|-----------------|-----------------|
|-----------------|---------------6-|
|-9-9-9-4-4-x-x-9-|-9-9-9-4-4-x-x-6-|
|-7-6-6-2-2-x-x-7-|-7-6-6-2-2-x-x-4-|
|-----------------|-----------------|


        C#m         G#m                     E5
                                            Gtr
  +E  E E  E  E E E E   +E  E E  E  E  E  E E
|---------------------|-----------------------|
|-------5--5--5-5-x---|-----------------------|
|-(6)-6-6--6--6-6-x-4-|-(4)-4-4--4--4--4--4---|
|-(6)-6-6--6--6-6-x-6-|-(6)-6-6--6--6--6--6-9-|
|-(4)-4-4--4--4-4-x-6-|-(6)-6-6--6--6--6--6-7-|
|-------------------4-|-(4)-4-4--4--4--4--4---|
|
|
|---------------------|-------4-(4)-4-(4)-4---|
|-------5-(5)-5-5-x---|-------4-(4)-4-(4)-4---|
|-(6)-6-6--6--6-6-x-4-|-(4)-4-4--4--4--4--4---|
|-(6)-6-6--6--6-6-x-6-|-(6)-6-6--6--6--6--6---|
|-(4)-4-4--4--4-4-x-6-|-(6)-6-6--6--6--6--6---|
|-------------------4-|-(4)-4-4--4--4--4--4---|
|
| Gtr VI
|
|---------------------|-----------------------|
|---------------------|-----------------------|
|---------------------|-----------------------|
|---------------------|-----------------------|
|---------------------|-----------------------|
|---------------------|-----------------------|


    B/Eb        E5     B/Eb        E5
  I

|-----------------|-------------------|
|-----------------|-------------------|
|-----------------|-------------------|
|-9-9-9-----x-x-9-|-9--9-9-----x-x--9-|
|-7-6-6S2-2-x-x-7-|-7--6-6S2-2-x-x--7-|
|-----------------|-------------------|


|-----------------|-------------------|
|-----------------|-------------------|
|-----------------|-------------------|
|-----------------|-------------------|
|-----------------|-------------------|
|-----------------|-------------------|


|-----------------|-------------------|
|-----------------|-------------------|
|-----------------|----------------11-|
|-----------------|-------------------|
|-----------------|-------------------|
|-----------------|-------------------|


     B/Eb                   E5 B/Eb        F#5
                                           Gtr II

|-------------------------|-------------------------|
|-------------------------|-------------------------|
|-------------------------|-------------------------|
|--9--9--9----------------|--9--9--9--------4--4--4-|
|--7--6--6S=2--2--4--6----|--7--6--6S=2--2--4--4--4-|
|-----------------------7-|-----------------2--2--2-|
|
| Gtr IV
|
|-14----14----14----14----|-14----14----14----------|
|-------------------------|-------------------------|
|-------------------------|-------------------------|
|-13----13----13----13----|-13----13----13-13-13-13-|
|----14----14----14----14-|----14----14-------------|
|-------------------------|-------------------------|
|
|
|-14----14----14----14----|-14----14----14----------|
|-------------------------|-------------------------|
|----11----11----11----11-|----11----11----11-11-11-|
|-------------------------|-------------------------|
|-------------------------|-------------------------|
|-------------------------|-------------------------|


 Interlude
  E5D#5/B5/FF#5 E5  E5D#5/B5/FF#5 E5  E5D#5/B5/FF#5 E5  E5D#5/B5/FF#5 E5

|-----------------|-----------------|-----------------|-----------------|
|-----------------|-----------------|-----------------|-----------------|
|-9-8-8-4-4-------|-9-8-8-4-4-------|-9-8-8-4-4-------|-9-8-8-4-4-------|
|-9-8-8-4-4-4-4-2-|-9-8-8-4-4-4-4-2-|-9-8-8-4-4-4-4-2-|-9-8-8-4-4-4-4-2-|
|-7-6-6-2-2-4-4-2-|-7-6-6-2-2-4-4-2-|-7-6-6-2-2-4-4-2-|-7-6-6-2-2-4-4-2-|
|-7-6-6-2-2-2-2-0-|-7-6-6-2-2-2-2-0-|-7-6-6-2-2-2-2-0-|-7-6-6-2-2-2-2-0-|
|
| Gtr III
|
|-----------------|-----------------|-----------------|-----------------|
|-----------------|-----------------|-----------------|-----------------|
|-9-8-8-4-4-------|-9-8-8-4-4-------|-9-8-8-4-4-------|-9-8-8-4-4-------|
|-9-8-8-4-4-4-4-2-|-9-8-8-4-4-4-4-2-|-9-8-8-4-4-4-4-2-|-9-8-8-4-4-4-4-2-|
|-7-6-6-2-2-4-4-2-|-7-6-6-2-2-4-4-2-|-7-6-6-2-2-4-4-2-|-7-6-6-2-2-4-4-2-|
|-7-6-6-2-2-2-2-0-|-7-6-6-2-2-2-2-0-|-7-6-6-2-2-2-2-0-|-7-6-6-2-2-2-2-0-|


 Verse
  B5/FB                B                B                 B     B/Ab

|----------------|----------------|-----------------|-----------------|
|-----4----x-4---|-----4----x-4---|-----4-----x-4---|-----4-----4---4-|
|-----4----x-4---|-----4----x-4---|-----4-----x-4---|-----4-----4---4-|
|----------------|----------------|-----------------|-----------------|
|-2-2----------4-|--------------4-|-----------------|-----------------|
|-2-2------------|-2-2------------|-4-4-----------2-|-4-4---4-2-4-2-4-|
|
|
|----------------|----------------|-----------------|-----------2-2s4-|
|-----4----x-4---|-----4----x-4---|---5-5---4-----5-|-5---4-----------|
|-----4----x-4---|-----4----x-4---|-----------4-----|-------4---------|
|----------------|----------------|-------4---------|---4-------------|
|-2-2----------4-|--------------4-|-----------------|-----------------|
|----------------|-2-2------------|-4---------------|-----------------|


  B5/FB                B                B                 B     B/Ab

|----------------|----------------|-----------------|-----------------|
|-----4----x-4---|-----4----x-4---|-----4-----x-4---|-----4-----4---4-|
|-----4----x-4---|-----4----x-4---|-----4-----x-4---|-----4-----4---4-|
|----------------|----------------|-----------------|-----------------|
|-2-2----------4-|--------------4-|-----------------|-----------------|
|-2-2------------|-2-2------------|-4-4-----------2-|-4-4---4-2-4-2-4-|
|
|
|----------------|----------------|-----------------|-----------------|
|-----4----x-4---|-----4----x-4---|-----------------|-----------------|
|-----4----x-4---|-----4----x-4---|-------6-4-------|-------6-4-----6-|
|----------------|----------------|---4-6-----4-6---|---4-6-----4-6---|
|-2-2----------4-|--------------4-|-6-------------4-|-6---------------|
|----------------|-2-2------------|-----------------|-----------------|


  B5/FB               B               B               B     B/Ab

|---------------|---------------|---------------|-----------------|
|-----4--4--4---|-----4--4--4---|-----4--4--4---|-----4-----4---4-|
|-----4--4--4---|-----4--4--4---|-----4--4--4---|-----4-----4---4-|
|---------------|---------------|---------------|-----------------|
|-2-2---------4-|-------------4-|---------------|-----------------|
|-2-2-----------|-2-2-----------|-4-4---------2-|-4-4---4-2-4-2-4-|
|
|
|---------------|---------------|---------------|-----------------|
|-----4--4--4---|-----4--4--4---|-----4--4--4---|-----4-----4---4-|
|-4---4--4--4---|-----4--4--4---|-----4--4--4---|-----4-----4---4-|
|---------------|---------------|---------------|-----------------|
|-------------4-|-------------4-|---------------|-----------------|
|---------------|-2-2-----------|-4-4---------2-|-4-4---4-2-4-2-4-|


  B5/FB               B       F#5 G#5 B F#G#5 B F#5 G#B5G#F#G#F#G#B5

|---------------|---------------|-----------------|-----------------|
|-----4--4--4---|-----4--4--4---|-----4-------4---|-----------------|
|-----4--4--4---|-----4--4--4---|-----4-------4---|-----------------|
|---------------|---------------|-----------------|---4-----------4-|
|-2-2---------4-|-------------4-|-6-6---4-6-6---4-|-6-2-6-4-6-4-6-2-|
|-2-2-----------|-2-2---------2-|-4-4---2-4-4---2-|-4---4-2-4-2-4---|
|
|
|---------------|---------------|-----------------|---7-----------7-|
|-----4--4--4---|-----4--4--4---|---------------7s|=9---9s7-9s7-9---|
|-----4--4--4---|-----4--4--4-8-|-9-9---9-8-9-----|-----------------|
|---------------|---------------|-----------------|-----------------|
|-2-2---------4-|---------------|-----------------|-----------------|
|-2-2-----------|-2-2-----------|-----------------|-----------------|


 Chorus
  C#5  C#m       G#m       G#m           E5    B/EbB5      E5    B/EbB5      C#5

|------------------|-------4-(4)-4-(4)-4---|-----------------|-----------------|
|------5-5-5-5-x---|-------4-(4)-4-(4)-4---|-----------------|-----------------|
|-6--6-6-6-6-6-x-4-|-(4)-4-4--4--4--4--4---|-----------------|---------------6-|
|-6--6-6-6-6-6-x-6-|-(6)-6-6--6--6--6--6-9-|-9-9-9-4-4-x-x-9-|-9-9-9-4-4-x-x-6-|
|-4--4-4-4-4-4-x-6-|-(6)-6-6--6--6--6--6-7-|-7-6-6-2-2-x-x-7-|-7-6-6-2-2-x-x-4-|
|----------------4-|-(4)-4-4--4--4--4--4---|-----------------|-----------------|
|
|
|-9------------x---|-------4-(4)-4-(4)-4---|-----------------|-----------------|
|--------------x---|-------4-(4)-4-(4)-4---|-----------------|-----------------|
|--------------x-4-|-(4)-4-4--4--4--4--4---|-----------------|---------------6-|
|----------------6-|-(6)-6-6--6--6--6--6-9-|-9-9-9-4-4-x-x-9-|-9-9-9-4-4-x-x-6-|
|----------------6-|-(6)-6-6--6--6--6--6-7-|-7-6-6-2-2-x-x-7-|-7-6-6-2-2-x-x-4-|
|----------------4-|-(4)-4-4--4--4--4--4---|-----------------|-----------------|


        C#m         G#m                   N.C.
                                          Gtr

|---------------------|---------------------|
|-------5--5--5-5-x---|---------------------|
|-(6)-6-6--6--6-6-x-4-|-(4)-4-4--4--4-4-4---|
|-(6)-6-6--6--6-6-x-6-|-(6)-6-6--6--6-6-6---|
|-(4)-4-4--4--4-4-x-6-|-(6)-6-6--6--6-6-6-7-|
|-------------------4-|-(4)-4-4--4--4-4-4---|
|
|
|---------------------|---------------------|
|-------5-(5)-5-5-x---|-------4-(4)-4-4-4---|
|-(6)-6-6--6--6-6-x-4-|-(4)-4-4--4--4-4-4---|
|-(6)-6-6--6--6-6-x-6-|-(6)-6-6--6--6-6-6---|
|-(4)-4-4--4--4-4-x-6-|-(6)-6-6--6--6-6-6---|
|-------------------4-|-(4)-4-4--4--4-4-4---|
|
| Gtr VI
|
|---------------------|---------------------|
|---------------------|---------------------|
|---------------------|---------------------|
|---------------------|---------------------|
|---------------------|---------------------|
|---------------------|---------------------|


  I

|-----------------|-------------------|
|-----------------|-------------------|
|-----------------|-------------------|
|-----------------|-------------------|
|-7-6-6S2-2-x-x-7-|-7--6-6S2-2-x-x--7-|
|-----------------|-------------------|
|
|
|-----------------|-------------------|
|-----------------|-------------------|
|-----------------|-------------------|
|-----------------|-------------------|
|-----------------|-------------------|
|-----------------|-------------------|
|
|
|-----------------|-------------------|
|-----------------|-------------------|
|-----------------|----------------11-|
|-----------------|-------------------|
|-----------------|-------------------|
|-----------------|-------------------|


  B                                        F#5   E5
                                           Gtr II

|-------------------------|-------------------------|
|-------------------------|-------------------------|
|-------------------------|-------------------------|
|-------------------------|-----------------4--4--2-|
|--7--6--6S=2--2--4--6----|--7--6--6S=2--2--4--4--2-|
|-----------------------7-|-----------------2--2--0-|
|
| Gtr IV
|
|-------------------------|-------------------------|
|-------------------------|-------------------------|
|-------------------------|-------------------------|
|-13----13----13----13----|-13----13----13----13----|
|-14-14-14-14-14-14-14-14-|-14-14-14-14-14-14-14-14-|
|-------------------------|-------------------------|
|
|
|-14----14----14----14----|-14----14----14----------|
|-------------------------|-------------------------|
|----11----11----11----11-|----11----11----11-11-11-|
|-------------------------|-------------------------|
|-------------------------|-------------------------|
|-------------------------|-------------------------|


 Interlude
  E5D#5/B5/FF#5 E5  E5D#5/B5/FF#5 E5  E5D#5/B5/FF#5 E5  E5D#5/B5/FF#5 E5

|-----------------|-----------------|-----------------|-----------------|
|-----------------|-----------------|-----------------|-----------------|
|-9-8-8-4-4-------|-9-8-8-4-4-------|-9-8-8-4-4-------|-9-8-8-4-4-------|
|-9-8-8-4-4-4-4-2-|-9-8-8-4-4-4-4-2-|-9-8-8-4-4-4-4-2-|-9-8-8-4-4-4-4-2-|
|-7-6-6-2-2-4-4-2-|-7-6-6-2-2-4-4-2-|-7-6-6-2-2-4-4-2-|-7-6-6-2-2-4-4-2-|
|-7-6-6-2-2-2-2-0-|-7-6-6-2-2-2-2-0-|-7-6-6-2-2-2-2-0-|-7-6-6-2-2-2-2-0-|
|
| Gtr III
|
|-----------------|-----------------|-----------------|-----------------|
|-----------------|-----------------|-----------------|-----------------|
|-9-8-8-4-4-------|-9-8-8-4-4-------|-9-8-8-4-4-------|-9-8-8-4-4-------|
|-9-8-8-4-4-4-4-2-|-9-8-8-4-4-4-4-2-|-9-8-8-4-4-4-4-2-|-9-8-8-4-4-4-4-2-|
|-7-6-6-2-2-4-4-2-|-7-6-6-2-2-4-4-2-|-7-6-6-2-2-4-4-2-|-7-6-6-2-2-4-4-2-|
|-7-6-6-2-2-2-2-0-|-7-6-6-2-2-2-2-0-|-7-6-6-2-2-2-2-0-|-7-6-6-2-2-2-2-0-|


 Bridge
  E5                              N.C.
  Gtr I

|-----------------|---------------------|
|-----------------|---------------------|
|-----------------|---------------------|
|-2-4-1-2---1---2-|--2--4-1-2---1-----1-|
|---------4---2---|-----------4----2----|
|-----------------|---------------------|
|
|
|-----------------|---------------------|
|-----------------|---------------------|
|-----------------|---------------18\---|
|-2---------------|-(2)-----------------|
|-2---------------|-(2)-----------16\---|
|-0---------------|-(0)-----------------|
|
| Gtr V
|
|-----------------|---------------------|
|-----------------|---------------------|
|-----------------|---------------------|
|-----------------|---------------------|
|-----------------|---------------------|
|-----------------|---------------------|


  F#5/C#

|-----------------|----------------------|
|-----------------|----------------------|
|-----------------|----------------------|
|-----------------|----------------------|
|-4---------------|-(4)------------------|
|-----------------|----------------------|
|
|
|-----------------|----------------------|
|-----------------|----------------------|
|-8-8-6---8---6-8-|-----8---8s9-8-8-6----|
|-----------------|----------------------|
|-6-6-4---6---4-6-|-----6---6s7-6-6-4----|
|-----------------|----------------------|
|
|
|-----------------|----------------------|
|-----------------|----------------------|
|-----------------|----------------------|
|-4-4-4---4-4-4-4-|-----4-----4-4-4-4----|
|-4-4-4---4-4-4-4-|-----4-----4-4-4-4----|
|-----------------|----------------------|


  N.C.

|-----------------|-----------------------|
|-----------------|-----------------------|
|-----------------|-----------------------|
|-2-4-1-2---1---2-|-2-4-1-2------1------1-|
|---------4---2---|---------4--------2----|
|-----------------|-----------------------|
|
|
|-----------------|-----------------------|
|-----------------|-----------------------|
|-----------------|-----------/(16)\-x\-x-|
|-----------------|-----------------------|
|-----------------|------------/14\--x\-x-|
|-----------------|-----------------------|
|
|
|
|-----------------|-----------------------|
|-----------------|-----------------------|
|-----------------|-----------------------|
|-----------------|-----------------------|
|-----------------|-----------------------|
|-----------------|-----------------------|


  F#5/C#

|-----------------|----------------------|
|-----------------|----------------------|
|-----------------|----------------------|
|-----------------|----------------------|
|-4---------------|-(4)------------------|
|-----------------|----------------------|


|-----------------|----------------------|
|-----------------|----------------------|
|-8-8-6---8---6-8-|-----8---8s9-8-8-6----|
|-----------------|----------------------|
|-6-6-4---6---4-6-|-----6---6s7-6-6-4----|
|-----------------|----------------------|
|
|
|-----------------|----------------------|
|-----------------|----------------------|
|-----------------|----------------------|
|-4-4-4---4-4-4-4-|-----4-----4-4-4-4----|
|-4-4-4---4-4-4-4-|-----4-----4-4-4-4----|
|-----------------|----------------------|


  N.C.

|-----------------|---------------------|
|-----------------|---------------------|
|-----------------|---------------------|
|-2-4-1-2---1---2-|-2--4-1-2---1------1-|
|---------4---2---|----------4-----2----|
|-----------------|---------------------|
|
|
|-----------------|---------------------|
|-----------------|---------------------|
|-----------------|--------------(16)---|
|-----------------|---------------------|
|-----------------|---------------14\---|
|-----------------|---------------------|
|
|
|-----------------|---------------------|
|-----------------|---------------------|
|-----------------|---------------------|
|-----------------|---------------------|
|-----------------|---------------------|
|-----------------|---------------------|


  F#5/C#

|----------------------|-------------------|
|----------------------|-------------------|
|----------------------|-------------------|
|------------------4-6-|-4-----------------|
|-4------------(4)-----|--------------4-2--|
|----------------------|-------------------|
|
|
|----------------------|-------------------|
|----------------------|-------------------|
|-8--8-6---8----6--8---|----8---9-9-8-6-4--|
|----------------------|-------------------|
|-6--6-4---6----4--6---|----6---7-7-6-4-2--|
|----------------------|-------------------|
|
|
|----------------------|-------------------|
|----------------------|-------------------|
|----------------------|-------------------|
|-4--4-4---4-4--4--4---|----4---4-4-4-4----|
|-4--4-4---4-4--4--4---|----4---4-4-4-4----|
|----------------------|-------------------|


  B/Ab       B/F#                    B          B/E
  >

|---------------|------------------|---------------|---------------------|
|---------------|------------------|---------------|---------------------|
|-4-------------|-(4)--------------|---------------|---------------------|
|---------------|------------------|---------------|---------------------|
|-2-------------|-(2)--------------|---------------|---------------------|
|---------------|------------------|---------------|---------------------|
|
| >
|
|---------------|------------------|---------------|---------------------|
|---------------|------------------|---------------|----------------x-x--|
|-4-------------|-(4)--------------|---------------|----------------x-x--|
|---------------|------------------|---------------|----------------x-x--|
|-2-------------|-(2)--------------|---------------|---------------------|
|---------------|------------------|---------------|---------------------|
|
|
|---------------|------------------|---------------|---------------------|
|-4--x-4-x-4-4--|-(4)-4-4--4-4-4-4-|-4--x-4-x-4-4--|-(4)-4-4----4-4-4----|
|-4--x-4-x-4-4--|-(4)-4-4--4-4-4-4-|-4--x-4-x-4-4--|-(4)-4-4----4-4-4----|
|----x---x------|------------------|----x---x------|---------------------|
|----x---x------|------------------|-2--x-2-x-2----|---------------------|
|-4--x-4-x-4-2--|-(2)-2-2--2-2-2-2-|------------0--|-(0)-0-0----0-0-0----|


  B/Ab        B/F#
  Gtr V

|----------------|----------------------|
|-4---x-4-x-4-4--|-(4)-4-4--4-4--4--4---|
|-4---x-4-x-4-4--|-(4)-4-4--4-4--4--4---|
|-----x---x------|----------------------|
|-----x---x------|----------------------|
|-4---x-4-x-4-2--|-(2)-2-2--2-2--2--2---|
|
| Gtr III
|
|----------------|----------------------|
|----------------|------------------5-5-|
|-4-----------3--|-(3)----------(3)-----|
|----------------|------------------2-2-|
|----------------|----------------------|
|-4-----------2--|-(2)----------(2)-----|


  B/E          B

|-----------------|---------------------|
|-4---x-4--x-4-4--|-4-4-4-4-4-4-4--4----|
|-4---x-4--x-4-4--|-4-4-4-4-4-4-4--4----|
|-----x----x------|---------------------|
|-----x----x---2--|-2-2-2-2-2-2-2--2----|
|-0---x-0--x-0----|---------------------|
|
|
|-----------------|---------------------|
|-5-----7------7--|-7-7-7-7-7-7-7-12-12-|
|-----------------|---------------------|
|-2-----4------4--|-4-4-4-4-4-4-4--9--9-|
|-----------------|---------------------|
|-----------------|---------------------|


  B/Ab               B/F#
  Gtr II

|--------------------------|--------------------------|
|--4-----4--4-(4)--4--4----|--4--4--4-----4--4--4-4---|
|--4-----4--4-(4)--4--4----|--4--4--4-----4--4--4-4---|
|--------------------------|--------------------------|
|--------------------------|--------------------------|
|--4-----4--4-(4)--4--2----|--2--2--2-----2--2--2-2---|
|

|--------------------------|--------------------------|
|-12-12-12S14-14--14S11-11-|-11-11-11-11-11-11-11-9-9-|
|--------------------------|--------------------------|
|--9--9--9S11-11--11S=8--8-|--8--8--8--8--8--8--8-6-6-|
|--------------------------|--------------------------|
|--------------------------|--------------------------|


  B/E           B

|-------------------|----------------------|
|-4---4-4-(4)-4-4---|-4-4-4-4-4-4----------|
|-4---4-4-(4)-4-4---|-4-4-4-4-4-4----------|
|-------------------|----------------------|
|---------------2---|-2-2-2-2-2-2----------|
|-0---0-0-(0)-0-----|-------------/4-(4)\--|
|
|
|-------------------|----------------------|
|-9-9-9S7--7--7S4-4-|-4-4-4-4-4-4----------|
|-------------------|----------------------|
|-6-6-6S4--4--4S1-1-|-1-1-1-1-1-1----------|
|-------------------|----------------------|
|-------------------|-------------/4-(4)\--|


  G#5               F#5

|-----------------|-----------------|----------|------|
|-----------------|-----------------|----------|------|
|-----------------|-----------------|----------|------|
|-6-6-6-6-6-6-6-6-|-4-4-4-4-4-4-4-4-|----------|------|
|-6-6-6-6-6-6-6-6-|-4-4-4-4-4-4-4-4-|----------|------|
|-4-4-4-4-4-4-4-4-|-2-2-2-2-2-2-2-2-|----------|------|
|
|
|-----------------|-----------------|----------|------|
|-----------------|-----------------|----------|------|
|-----------------|-----------------|----------|------|
|-----------------|-----------------|----------|------|
|-6-6-6-6-6-6-6-6-|-9-9-9-9-9-9-9-9-|----------|------|
|-4-4-4-4-4-4-4-4-|-6-6-6-6-6-6-6-6-|----------|------|


 Chorus
  C#5 C#m         G#m                     E5/B

|-------------------|-------4-(4)-4-(4)-4---|
|-----5--5--5-5-x---|-------4-(4)-4-(4)-4---|
|-6-6-6--6--6-6-x-4-|-(4)-4-4--4--4--4--4---|
|-6-6-6--6--6-6-x-6-|-(6)-6-6--6--6--6--6-9-|
|-4-4-4--4--4-4-x-6-|-(6)-6-6--6--6--6--6-7-|
|-----------------4-|-(4)-4-4--4--4--4--4-7-|
|
|
|-------------------|-------4-(4)-4-(4)-4---|
|-----5-(5)-5-5-x---|-------4-(4)-4-(4)-4---|
|-6-6-6--6--6-6-x-4-|-(4)-4-4--4--4--4--4---|
|-6-6-6--6--6-6-x-6-|-(6)-6-6--6--6--6--6-9-|
|-4-4-4--4--4-4-x-6-|-(6)-6-6--6--6--6--6-7-|
|-----------------4-|-(4)-4-4--4--4--4--4-7-|


    B/BbB5/F#   E5/B  B/BbB5/F#   C#5

|-----------------|-----------------|
|-----------------|-----------------|
|-----------------|---------------6-|
|-9-9-9-4-4-x-x-9-|-9-9-9-4-4-x-x-6-|
|-7-6-6-2-2-x-x-7-|-7-6-6-2-2-x-x-4-|
|-7-6-6-2-2-x-x-7-|-7-6-6-2-2-x-x---|
|
|
|-----------------|-----------------|
|-----------------|-----------------|
|-----------------|---------------6-|
|-9-9-9-4-4-x-x-9-|-9-9-9-4-4-x-x-6-|
|-7-6-6-2-2-x-x-7-|-7-6-6-2-2-x-x-4-|
|-7-6-6-2-2-x-x-7-|-7-6-6-2-2-x-x---|


        C#m         G#m                     N.C.E5
                                            Gtr

|---------------------|-----------------------|
|-------5--5--5-5-x---|-----------------------|
|-(6)-6-6--6--6-6-x-4-|-(4)-4-4--4--4--4--4---|
|-(6)-6-6--6--6-6-x-6-|-(6)-6-6--6--6--6--6---|
|-(4)-4-4--4--4-4-x-6-|-(6)-6-6--6--6--6--6-7-|
|-------------------4-|-(4)-4-4--4--4--4--4---|
|
|
|---------------------|-------4-(4)-4-(4)-4---|
|-------5-(5)-5-5-x---|-------4-(4)-4-(4)-4---|
|-(6)-6-6--6--6-6-x-4-|-(4)-4-4--4--4--4--4---|
|-(6)-6-6--6--6-6-x-6-|-(6)-6-6--6--6--6--6---|
|-(4)-4-4--4--4-4-x-6-|-(6)-6-6--6--6--6--6---|
|-------------------4-|-(4)-4-4--4--4--4--4---|
|
|
|---------------------|-----------------------|
|---------------------|-----------------------|
|---------------------|-----------------------|
|---------------------|-----------------------|
|---------------------|-----------------------|
|---------------------|-----------------------|


     N.CB/Eb  B5    N.C.    E5 N.CB/EN.CB5    N.C.
  I

|-------------------------|-------------------------|
|-------------------------|-------------------------|
|--------------------4----|--------------------4----|
|--9-----9-----4----------|--9-----9-----4----------|
|--7--6--6-\2--2--------7-|--7--6--6-\2--2--------7-|
|-------------------------|-------------------------|
|
| Gtr IV
|
|-------14----------14----|-------14----------14----|
|-12----------12----------|-12----------12----------|
|----11----11----11----11-|----11----11----11----11-|
|-------------------------|-------------------------|
|-------------------------|-------------------------|
|-------------------------|-------------------------|
|
| Gtr V
|
|--------7-----------7----|--------7-----------7----|
|--7-----------7----------|--7-----------7----------|
|-----8-----8-----8-----8-|-----8-----8-----8-----8-|
|-------------------------|-------------------------|
|-------------------------|-------------------------|
|-------------------------|-------------------------|


  E5 N.CB/EN.CB5    N.C.    E5 N.CB/EN.CB5 F#5  E5
                                           Gtr II

|-------------------------|-----------------------|
|-------------------------|-----------------------|
|--------------------4----|-----------------------|
|--9-----9-----4----------|--9-----9-----4-4--4-2-|
|--7--6--6-\2--2--------7-|--7--6--6-\2--2-4--4-2-|
|-------------------------|----------------2--2-0-|
|
|                                          Gtr III
|
|-------14----------14----|-------14--------------|
|-12----------12----------|-12----------12--------|
|----11----11----11----11-|----11----11-----------|
|-------------------------|----------------4--4-2-|
|-------------------------|----------------4--4-2-|
|-------------------------|----------------2--2-0-|
|

|--------7-----------7----|--------7--------------|
|--7-----------7----------|--7-----------7--------|
|-----8-----8-----8-----8-|-----8-----8-----------|
|-------------------------|-----------------------|
|-------------------------|-----------------------|
|-------------------------|-----------------------|


 Interlude
  E5D#5/B5/FF#5 E5  E5D#5/B5/FF#5 E5

|-----------------|-----------------|
|-----------------|-----------------|
|-9-8-8-4-4-------|-9-8-8-4-4-------|
|-9-8-8-4-4-4-4-2-|-9-8-8-4-4-4-4-2-|
|-7-6-6-2-2-4-4-2-|-7-6-6-2-2-4-4-2-|
|-7-6-6-2-2-2-2-0-|-7-6-6-2-2-2-2-0-|
|
|
|-----------------|-----------------|
|-----------------|-----------------|
|-9-8-8-4-4-------|-9-8-8-4-4-------|
|-9-8-8-4-4-4-4-2-|-9-8-8-4-4-4-4-2-|
|-7-6-6-2-2-4-4-2-|-7-6-6-2-2-4-4-2-|
|-7-6-6-2-2-2-2-0-|-7-6-6-2-2-2-2-0-|


  E5D#5/B5/FF#5 E5  E5D#5/B5/F#

|-----------------|-------------------------|
|-----------------|-------------------------|
|-9-8-8-4-4-------|-9-8-8-4-4---------------|
|-9-8-8-4-4-4-4-2-|-9-8-8-4-4-x-x-x-x-x-x---|
|-7-6-6-2-2-4-4-2-|-7-6-6-2-2-x-x-x-x-x-x---|
|-7-6-6-2-2-2-2-0-|-7-6-6-2-2-x-x-x-x-x-x---|
|
|
|-----------------|-------------------------|
|-----------------|-------------------------|
|-9-8-8-4-4-------|-9-8-8-4-4---------------|
|-9-8-8-4-4-4-4-2-|-9-8-8-4-4-x-x-x-x-x-x---|
|-7-6-6-2-2-4-4-2-|-7-6-6-2-2-x-x-x-x-x-x---|
|-7-6-6-2-2-2-2-0-|-7-6-6-2-2-x-x-x-x-x-x---|


  E5D#5/B5/FF#5   E5  E5D#5/B5/FF#5   E5  E5D#5/B5/FF#5   E5  E5D#5/B5/FF#5 E5

|-------------------|-------------------|-------------------|-----------------|
|-------------------|-------------------|-------------------|-----------------|
|-9-8-8-4-4---------|-9-8-8-4-4---------|-9-8-8-4-4---------|-9-8-8-4-4-------|
|-9-8-8-4-4--4--4-2-|-9-8-8-4-4--4--4-2-|-9-8-8-4-4--4--4-2-|-9-8-8-4-4-4-4-2-|
|-7-6-6-2-2--4--4-2-|-7-6-6-2-2--4--4-2-|-7-6-6-2-2--4--4-2-|-7-6-6-2-2-4-4-2-|
|-7-6-6-2-2--2--2-0-|-7-6-6-2-2--2--2-0-|-7-6-6-2-2--2--2-0-|-7-6-6-2-2-2-2-0-|
|
|
|-------------------|-------------------|-------------------|-----------------|
|-------------------|-------------------|-------------------|-----------------|
|-9S8-8S4-4S11-11S9-|-9S8-8S4-4S11-11S9-|-9S8-8S4-4S11-11S9-|-9S8-8S4-4S9-9-8-|
|-------------------|-------------------|-------------------|-----------------|
|-7S6-6S2-2S=9--9S7-|-7S6-6S2-2S=9--9S7-|-7S6-6S2-2S=9--9S7-|-7S6-6S2-2S7-7-6-|
|-------------------|-------------------|-------------------|-----------------|


 Outro
  N.C.                        B N.C.
  Gtr I

|---4-(4)-2-(2)-2-----|---------------------|
|-----------------4-2-|-(2)-2-4-2-(2)-0---0-|
|-4-------------------|-------4---------4---|
|---------------------|---------------------|
|---------------------|---------------------|
|---------------------|---------------------|
|
| >
|
|---------------------|---------------------|
|---------------------|---------------------|
|-8-------------------|-(8)-----------------|
|---------------------|---------------------|
|-6-------------------|-(6)-----------------|
|-7-------------------|-(7)-----------------|


                  B N.C.

|-----4---2-(2)-2-----|--------------------------|
|-----------------4-2-|-(2)-0-(0)-2-4-(4)-4---4--|
|--4----4---------4---|---------------------4----|
|---------------------|--------------------------|
|---------------------|--------------------------|
|---------------------|--------------------------|
|
|
|---------------------|--------------------------|
|---------------------|--------------------------|
|-(8)-----------------|-(8)----------------------|
|---------------------|--------------------------|
|-(6)-----------------|-(6)----------------------|
|-(7)-----------------|-(7)----------------------|


  N.C.        B N.C.                        Bsus2 F#/Bb   B

|---4---2-(2)-------|---------------------|-------2-----|-7----*|
|-------0-(0)-4---2-|-----2-4---2---0---0-|-2-----2-----|-7----*|
|-4---4-------4-4---|-(4)-----4---4---4---|-4-----3-----|-8----*|
|-------------------|---------------------|-------------|-9----*|
|-------------------|---------------------|-------------|------*|
|-------------------|---------------------|-------------|------*|


Duration Legend
---------------
W - whole; H - half; Q - quarter; E - 8th; S - 16th; T - 32nd; X - 64th; a - acciaccatura
+ - note tied to previous; . - note dotted; .. - note double dotted
Uncapitalized letters represent notes that are staccato (1/2 duration)
Irregular groupings are notated above the duration line
Duration letters will always appear directly above the note/fret number it represents the
duration for.  Duration letters with no fret number below them represent rests.  Multi-
bar rests are notated in the form Wxn, where n is the number of bars to rest for.  Low
melody durations appear below the staff

Tablature Legend
----------------
 h   - hammer-on
 p   - pull-off
 b   - bend
 pb  - pre-bend
 r   - bend release (if no number after the r, then release immediately)
 /\  - slide into or out of (from/to "nowhere")
 s   - legato slide
 S   - shift slide
<n> - natural harmonic
[n]  - artificial harmonic
n(n) - tapped harmonic
 ~   - vibrato
 tr  - trill
 T   - tap
 TP  - trem. picking
 PM  - palm muting
\n/  - tremolo bar dip; n = amount to dip
 \n  - tremolo bar down
 n/  - tremolo bar up
/n\  - tremolo bar inverted dip
 =   - hold bend; also acts as connecting device for hammers/pulls
 <> - volume swell (louder/softer)
 x   - on rhythm slash represents muted slash
 o   - on rhythm slash represents single note slash

Misc Legend
-----------
 |  - bar
||  - double bar
||o - repeat start
o|| - repeat end
*|  - double bar (ending)
 :  - bar (freetime)
 $  - Segno
 &  - Coda

Re: Spidersong

Posted: Sun Aug 03, 2008 11:00 pm
by Scott

Re: Spidersong

Posted: Mon Aug 11, 2008 1:38 am
by the futile
best tab i've seen for this.

Re: Spidersong

Posted: Sat Feb 13, 2010 7:12 pm
by david_style6
could someone post a video of this that would be great