Slowly Through A Vector

Post Reply
User avatar
steveo
Legend
Posts: 89
Joined: Sat Aug 02, 2008 4:46 pm

Slowly Through A Vector

Post by steveo » Mon Aug 04, 2008 4:47 pm

Spin Acoustic


Code: Select all

Intro
e|----------------------------------------------------------------| 
B|----------------------------------------------------------------| 
G|----------------------3-------------------------3---3-----------| 
D|-----------5-5555h3---------------5--555h7----5-------------| 
A|---333s7-------------------333s7----------------------------| 
E|---------------------------------------------------------------|


e|----------------------------------------------------------------| 
B|----------------------------------------------------------------| 
G|----------------------3-------------------------3~--------------| 
D|-----------5-5555h3---------------5--555h7-----------------| 
A|---333s7-------------------333s7----------------------------| 
E|---------------------------------------------------------------|

"passing slowly through a vector"
e|----------------------------------------------------------------| 
B|-------3~-------------------------3s5--------------------------------| 
G|----------------------------------------------------------------| 
D|----2---------2----2----------2-----------2-----2-------------------| 
A|--3---3---------3----3~----3--3------------3-----3---------------------| 
E|------------1----------------------------1-----------------------|



e|----------------------------------------------------------------| 
B|-------3---------------------------------------------------------| 
G|----------------------------------------------------------------| 
D|----2-----(just doodle with this)----2--2---------------------------
A|--3---3---------------------------------3--3--(doodle then whole chord slides to 5)
E|-------------------------------------1--------------------------|



"WOAHH"
e|----------------------------------------------------------------| 
B|----------------------------------------------------------------| 
G|--------------------------5--------------------------------------| 
D|--------------------------5-5--7----------------------------------| 
A|--------3---------3------3-5-s7------x2 (passin slow)-----------| 
E|---3h5----h5-3h5---------3--5------------------------------------|

"drink the colors of the nighttime" 
e|----------------------------------------------------------------| 
B|-------3---------------------------------------------------------| 
G|----------------------------------------------------------------| 
D|----2-----(just doodle with this)----2--2---------------------------
A|--3---3---------------------------------3--3--(doodle then whole chord slides to 5)
E|-------------------------------------1--------------------------|

"Ill display my disaffection" (strum to beat)
e|----------------------------------------------------------------| 
B|----------------------------------------------------------------| 
G|--X-X-------------------------------------------------------------| 
D|--X-X-------------------------------------------------------------| 
A|--X-X-----------------------------------------------------------| 
E|--X-X-------------------------------------------------------------|
"loud and proud and your direction, 
e|----------------------------------------------------------------| 
B|----------------------------------------------------------------| 
G|--------------------------------------------------------------| 
D|--2-------------------------------------------------------------| 
A|--3-x w.e.----------------------------------------------| 
E|--1-------------------------------------------------------|

WOAH
e|----------------------------------------------------------------| 
B|----------------------------------------------------------------| 
G|--------------------------5--------------------------------------| 
D|--------------------------5-5--7- 3---5------------------------------| 
A|--------3---------3------3-5-s7- 3-S-5---x2 (passin slow)-----------| 
E|---3h5----h5-3h5---------3--5- -5---7-------------------------------|

"when i get to your apartment.."
e|----------------------------------------------------------------| 
B|----------------------------------------------------------------| 
G|--------------------------------------------------------------| 
D|--2-----2-------------5----(pick this?)-----------------------------| 
A|--3-----3-------------5-----------------------------| 
E|--1--------------------3-----------------------------------|

e|----------------------------------------------------------------| 
B|----------55------------555-------55-------555----------------------------| 
G|--------------------------------------------------------------| 
D|-------------------------------33-------33------------------------| 
A|----33----------33-----------------------------------------------|   "ha ha ha show me what you got"
E|----------------------------------------------------------|



HAVE A BALL WITH THIS ONE
Image
Oh, I'll be around to pick your pretty heart right off the ground when all this
fucking fashion brings you down.
http://www.purevolume.com/stevearuilioistheman

User avatar
the futile
Posts: 63
Joined: Sun Aug 10, 2008 7:56 pm

Re: Slowly Through A Vector

Post by the futile » Mon Aug 11, 2008 1:41 am

what actually is the part after the chords where everyone usually writes "just muck about with this"
You've got to go with the motion, oh
Can you feel it in your bones?

User avatar
steveo
Legend
Posts: 89
Joined: Sat Aug 02, 2008 4:46 pm

Re: Slowly Through A Vector

Post by steveo » Mon Aug 11, 2008 1:43 am

?
Image
Oh, I'll be around to pick your pretty heart right off the ground when all this
fucking fashion brings you down.
http://www.purevolume.com/stevearuilioistheman

User avatar
the futile
Posts: 63
Joined: Sun Aug 10, 2008 7:56 pm

Re: Slowly Through A Vector

Post by the futile » Mon Aug 11, 2008 1:48 am

steveo wrote:?

Code: Select all

"drink the colors of the nighttime"
e|----------------------------------------------------------------|
B|-------3---------------------------------------------------------|
G|----------------------------------------------------------------|
D|----2-----[b](just doodle with this)[/b]----2--2---------------------------
A|--3---3---------------------------------3--3--(doodle then whole chord slides to 5)
E|-------------------------------------1--------------------------|

You've got to go with the motion, oh
Can you feel it in your bones?

User avatar
steveo
Legend
Posts: 89
Joined: Sat Aug 02, 2008 4:46 pm

Re: Slowly Through A Vector

Post by steveo » Mon Aug 11, 2008 1:58 am

the futile wrote:
steveo wrote:?
"drink the colors of the nighttime"
e|----------------------------------------------------------------|
B|-------3---------------------------------------------------------|
G|----------------------------------------------------------------|
D|----2-----(just doodle with this)----2--2---------------------------
A|--3---3---------------------------------3--3--(doodle then whole chord slides to 5)
E|-------------------------------------1--------------------------|

i think its simple to pic up
Image
Oh, I'll be around to pick your pretty heart right off the ground when all this
fucking fashion brings you down.
http://www.purevolume.com/stevearuilioistheman

User avatar
Barry Egan
Posts: 95
Joined: Mon Aug 04, 2008 2:09 pm
Contact:

Re: Slowly Through A Vector

Post by Barry Egan » Mon Aug 11, 2008 2:32 am

The ending(ha ha ha) is much more complicated than C to a Fmaj7. It starts out like that but then there's some different bass notes. I'll have to listen a little closer to figure it out though.
Image

Post Reply