Every Man Has A Molly

User avatar
Scott
Site Admin
Posts: 540
Joined: Sat Aug 02, 2008 11:33 am
Location: Maryland
Contact:

Every Man Has A Molly

Postby Scott » Sat Aug 02, 2008 5:10 pm

Code: Select all

Say Anything
"Every Man Has A Molly"
Tabbed By: Scott Rome and Steve Aruilio

This is a guitar tab. I have tabbed the bass in the verse and a few other points because
people mistake a bass guitar with distortion for an electric guitar.


Intro

e|--------------------9-------|
B|--------10-------12---10~---|
G|--9-11------11-9------------|
D|----------------------------|
A|----------------------------|
E|----------------------------|

Here I am...



notes in ( ) are not played live
             *           *   
e|-------------------------------------------------------------------------------|
B|----2---2-----2---------0-3-2-0-------2----3--2-0-----2-------2----------------|
G|------------2---2---1-2---------2---2-2-------------2-2-----2---2---1-2-2-/4-2-|
D|--0---2-----------2---------------------------------------0-------2------------|
A|----------0---------------2------------(0)-2----------(4)----------------------|
E|----------------------------------2---------------2----------------------------|
        *
e|----------------------------------------------------------|
B|----2---------0-3-2-0-------2-------2-----------------2---|
G|------2---1-2---------2---2-2-----2---2---1-2-2/4\2-----2-|
D|--------2-----------------------0-------2-----------------|
A|--0-------------2-----------(4)---------------------0-----|
E|------------------------2---------------------------------|

*Pick the 2 and pluck the 3 with your finger.


You .. kids...

e|-------------------------------------------------------------------------------|
B|----2---2-----2---------0-3-2-0-------2----3--2-0-----2-------2----------------|
G|------------2---2---1-2---------2---2-2-------------2-2-----2---2---1-2-2-/4-2-|
D|--0---2-----------2---------------------------------------0-------2------------|
A|----------0---------------2------------(0)-2----------(4)----------------------|
E|----------------------------------2---------------2----------------------------|

e|--------------------------------------------------------|
B|----2---------0-3-2-0-------2-------2-------------------|
G|------2---1-2---------2---2-2-----2---2---1-2-2/4\2-----|
D|--------2-----------------------0-------2---------------|
A|--0-------------2-----------(4)-------------------0-----|
E|------------------------2-------------------------------|

Here I am..

Distorted Bass Plays Verse Alone.... (and is tuned to Drop D)
G|----------------------------------------------------------------------|
D|----------------------------------------------------------------------|
A|----------------------------------------------------------------------|
D|--7-7-7-7-2-2-2-2-9-9-9-9-4-4-4-4-9-9-9-9-4-4-4-4-0-0-0-0-2/4--4--4---|

Electric Guitar
e|----------------------------------------------------------------------|
B|----------------------------------------------------------------------|
G|----------------------------------------------------------9/11-11-11--|
D|----------------------------------------------------------------------|
A|----------------------------------------------------------7/9--9--9---|
E|----------------------------------------------------------------------|

Distro Bass
G|----------------------------------------------------------------------|
D|----------------------------------------------------------------------|
A|----------------------------------------------------------------------|
D|--7-7-7-7-2-2-2-2-9-9-9-9-4-4-4-4-0-0-4-4-2-2-6-6-7-7-7-7-0--2--------|


And I...

Bass
G|----------------------------------------------------------------------|
D|----------------------------------------------------------------------|
A|----------------------------------5-5-5-5-0-0-0-0-7-7-7-7-7/9--9--9---|
D|--7-7-7-7-2-2-2-2-9-9-9-9-4-4-4-4-------------------------------------|


Electric Guitar (Do some mute string strums before you start) (strum untill next note)
e|------------------------------------------------------------------------|
B|------------------------------------------------------------------------|
G|--6-------9-------11-------6------11-------6-------9-------9/11-11--11--|
D|------------------------------------------------------------------------|
A|--4-------7--------9-------4-------9-------4-------7-------7-/9--9--9---|
E|------------------------------------------------------------------------|

Bass
G|----------------------------------------------------------------------|
D|----------------------------------------------------------------------|
A|----------------------------------------------------------------------|
D|--7-7-7-7-2-2-2-2-9-9-9-9-4-4-4-4-0-0-4-4-2-2-6-6-7-7-7-7-7-7-7-7-----|

Electric guitar (strum as needed)
e|------------------------------------------------|
B|------------------------------------------------|
G|--6-------9-------11--13-14--11--14-13-16-14----|
D|------------------------------------------------|
A|--4-------7--------9--11-12---9--12-11-14-12----|
E|------------------------------------------------|

Instrumental to
I Can't Stop Thinking...

e|---------------------------------------------------------------------|
B|---------------------------------------------------------------------|
G|---------------------------------------------------------------------| (x2)
D|----0---0---0---0---0---------------0---0---0---0---0-------0---0----|
A|--5---4---2---2---2---2---0---0---5---4---2---2---2---2-2/4---4---4--|
E|------------------------2---2---2------------------------------------|

e|-----------------------------------------------------------|
B|-----------------------------------------------------------|
G|-----------------------------------------------------------|
D|----0---0---0---0---0---------------0---0---0---0---0------|
A|--5---4---2---2---2---2---0---0---5---4---2---2---2---2----|
E|------------------------2---2---2-----------------------2--|

Can't stop thinking..
This part is the distorted bass playing the root notes from above...
but remember the bass is in Drop D so the 2 on E is really 4 on D.

Solo Section

Bass Distorted Under Solo
G|----------------------------------------------------------------------|
D|----------------------------------------------------------------------|
A|--------------------------------------------------5-5-5-5-7/9--9--9---|
D|--7-7-7-7-2-2-2-2-9-9-9-9-4-4-4-4-9-9-9-9-4-4-4-4---------------------|

G|----------------------------------------------------------------------|
D|----------------------------------------------------------------------|
A|----------------------------------5-5-5-5-7-7-7-7-0-0-0-0-0-----------|
D|--7-7-7-7-2-2-2-2-9-9-9-9-4-4-4-4-------------------------------------|

Guitar 1 Solo (right)
e|-0-0-0-0-0-0-0-0----------------------------------------------------------17-16-14-12--12-14-12-14-12--19-21-19-17-----|
B|-2-0-0-2-0-0-0-0--3-2-0----3-2-0---0--------------------------------12-14----------------------------------------------|
G|------------------------2--------2---2-4/6\4/6\4-4--9-7-6---6----------------------------------------------------------|
D|----------------------------------------------------------9---9-7-6----------------------------------------------------|
A|-----------------------------------------------------------------------------------------------------------------------|
E|-----------------------------------------------------------------------------------------------------------------------|

Guitar 2 Solo (left)
e|-0-0-0-0-0-0-0-0------------------------------------------------------------------------------------------------------------------|
B|-2-0-0-2-0-0-0-0--3-2-0---15-14-12-10-12-10-12/14\12/14\12-12--14-12-------------------12-14--------------------------12-14-12-10-|
G|------------------------2--------------------------------------------14-13-14-13-------------14-13-11-9--9-11-9-11-9--------------|
D|---------------------------------------------------------------------------------16-14--------------------------------------------|
A|----------------------------------------------------------------------------------------------------------------------------------|
E|----------------------------------------------------------------------------------------------------------------------------------|


End of solo

e|---10~----9~------7~----5~---|

End Solo notes ringing out over...
into Can't Stop Thinking...
e|---------------------------------------------------------------------|
B|---------------------------------------------------------------------|
G|---------------------------------------------------------------------| (x2)
D|----0---0---0---0---0---------------0---0---0---0---0-------0---0----|
A|--5---4---2---2---2---2---0---0---5---4---2---2---2---2-2/4---4---4--|
E|------------------------2---2---2------------------------------------|

Distortion!
e|-----------------------------------------------------------|
B|-----------------------------------------------------------|
G|-----------------------------------------------------------|
D|-----------------------------------------------------------|
A|--5-5-4-4-2-2-2-2-2-2-2------------5-5-4-4-2-2-2-2-2-2-2---|
E|------------------------2-2-2-2-2-----------------------2--|

The bass plays the bulk of this but this is in the background on guitar
e|--------------------------------------------------------------------|
B|--------------------------------------------------------------------|
G|--7-7-6-6-4-4-4-4-4-4-4------------7-7-6-6-4-4-4-4-4-4-4-/6-6-6-6-6-|
D|--7-7-7-7-4-4-4-4-4-4-4-4-4-4-4-4--7-7-7-7-4-4-4-4-4-4-4-/7-7-7-7-7-|
A|--5-5-4-4-2-2-2-2-2-2-2-4-4-4-4-4--5-5-4-4-2-2-2-2-2-2-2-/4-4-4-4-4-|
E|------------------------2-2-2-2-2-----------------------------------|

e|-----------------------------------------------------------|
B|-----------------------------------------------------------|
G|--7-7-6-6-4-4-4-4-4-4-4------------7-7-6-6-4-4-4-4-4-4-4---|
D|--7-7-7-7-4-4-4-4-4-4-4-4-4-4-4-4--7-7-7-7-4-4-4-4-4-4-4-4-|
A|--5-5-4-4-2-2-2-2-2-2-2-4-4-4-4-4--5-5-4-4-2-2-2-2-2-2-2-4-|
E|------------------------2-2-2-2-2------------------------2-|

Guitar in the background does variations on:
e|-5-5-5-5-5-7-5-5-|          |-5-|
B|-----------------|          |---|
G|-6-6-6-6-6-6-6-6-|          |-6-|
D|-7-7-7-7-7-7-7-7-|  x a few and end on |-7-|
A|-----------------|          |---|
E|-----------------|          |---|   
Self-inflicted or not, I find myself on the farthest star, foreign to everything like I woke up with a German tongue.

User avatar
Scott
Site Admin
Posts: 540
Joined: Sat Aug 02, 2008 11:33 am
Location: Maryland
Contact:

Re: Every Man Has A Molly (Guitar / Some Bass)

Postby Scott » Sat Aug 02, 2008 5:11 pm

Self-inflicted or not, I find myself on the farthest star, foreign to everything like I woke up with a German tongue.

eskimofood
Posts: 1
Joined: Tue Jan 19, 2010 4:20 pm

Re: Every Man Has A Molly

Postby eskimofood » Tue Jan 19, 2010 5:08 pm

that intro is giving me a ton of trouble for some reasons, what chords are they using do you know?

applejoe
Posts: 1
Joined: Wed Apr 14, 2010 12:39 am

Re: Every Man Has A Molly

Postby applejoe » Wed Apr 14, 2010 12:44 am

I wish that you had put some kind of guitar tabs during the electric bass verse part so that if i wanted to play it acoustic, i had some guitar tabs to follow.

User avatar
Scott
Site Admin
Posts: 540
Joined: Sat Aug 02, 2008 11:33 am
Location: Maryland
Contact:

Re: Every Man Has A Molly

Postby Scott » Mon Apr 19, 2010 12:11 am

eskimofood wrote:that intro is giving me a ton of trouble for some reasons, what chords are they using do you know?



well from the tab and the video you can see what the positions are for the chords

and to Applejoe, the electric bass parts aren't too hard and follow closely to the octave parts
Self-inflicted or not, I find myself on the farthest star, foreign to everything like I woke up with a German tongue.


Return to “...Is A Real Boy”

Who is online

Users browsing this forum: No registered users and 1 guest