Blizzard (New York)

User avatar
steveo
Legend
Posts: 89
Joined: Sat Aug 02, 2008 4:46 pm

Blizzard (New York)

Postby steveo » Tue Aug 19, 2008 3:50 pm

The little piano part after "i can remember"


Code: Select all

e|--------------------------------------------------------------|
b|--------------------------------------------------------------|
g|--5-5-- 9--5-7-5-9-5-7-------------------------------------|
d|--------------------------------------------------------------|
a|--------------------------------------------------------------|
e|--------------------------------------------------------------|
Image
Oh, I'll be around to pick your pretty heart right off the ground when all this
fucking fashion brings you down.
http://www.purevolume.com/stevearuilioistheman

User avatar
Scott
Legend
Posts: 540
Joined: Sat Aug 02, 2008 11:33 am
Location: Maryland
Contact:

Re: Blizzard (New York)

Postby Scott » Tue Aug 19, 2008 3:52 pm

verse
"do you remember when we..."

Code: Select all

e|-0--0--0--0--|
B|-1--1--1--1--|
G|-0--2--2--0--|
D|-2--3--2--2--|
A|-3--3--0--3--|
E|---(1)----3--|


although it's possible it may also be

Code: Select all

e|-0--0--0--0--|
B|-1--1--1--1--|
G|-0--0--0--0--|
D|-2--3--2--0--|
A|-3--3--0--2--|
E|---(1)----3--|


or a combination of the two. any ideas?
Self-inflicted or not, I find myself on the farthest star, foreign to everything like I woke up with a German tongue.

User avatar
Scott
Legend
Posts: 540
Joined: Sat Aug 02, 2008 11:33 am
Location: Maryland
Contact:

Re: Blizzard (New York)

Postby Scott » Sun Oct 05, 2008 11:07 am

I just watched a video of them playing acoustic and now I see what they do... I was close...

[quote="Scott"]verse
"do you remember when we..."
? could be 0 or muted..

Code: Select all

e|-0--0--0--0--|
B|-1--?--?--?--|
G|-0--2--6--4--|
D|-2--3--7--5--|
A|-3--3--7--5--|
E|----1--5--3--|


the rest of the song they use these types of chords instead of open ones. the only open one is C. the rest are the powerchords plus open on the high e and maybe b.
Self-inflicted or not, I find myself on the farthest star, foreign to everything like I woke up with a German tongue.

Jeffanything
Posts: 21
Joined: Tue Oct 12, 2010 3:19 pm

Re: Blizzard (New York)

Postby Jeffanything » Tue Oct 12, 2010 4:20 pm

Tuning for this song is EADGCE.

User avatar
Scott
Legend
Posts: 540
Joined: Sat Aug 02, 2008 11:33 am
Location: Maryland
Contact:

Re: Blizzard (New York)

Postby Scott » Tue Oct 12, 2010 5:07 pm

that explains alot
Self-inflicted or not, I find myself on the farthest star, foreign to everything like I woke up with a German tongue.


Return to “XO”

Who is online

Users browsing this forum: No registered users and 1 guest