Wowee Zowee

User avatar
Norgan
Posts: 237
Joined: Wed Aug 26, 2009 10:30 pm
Location: Baltimore, MD
Contact:

Re: Wowee Zowee

Postby Norgan » Mon Mar 08, 2010 4:27 am

Code: Select all

Intro/Chorus:
eb|---------------------------------|---------------------------------|
Bb|---------------------------------|---------------------------------|
Gb|---------------------------------|---------------------------------|
Db|-0-0---9-9---7-7---5-5---5-7-5-4-|-0-0---9-9---7-7---5-5---5-7-5-4-|
Ab|-0-0---9-9---7-7---5-5---5-7-5-4-|-0-0---9-9---7-7---5-5---5-7-5-4-|
Db|-0-0---9-9---7-7---5-5---5-7-5-4-|-0-0---9-9---7-7---5-5---5-7-5-4-|


Verse:
Bass only

Interlude:
eb|---------------------------------|---------------------------------|
Bb|---------------------------------|---------------------------------|
Gb|---------------------------------|---------------------------------|
Db|-4-4-4-4-4-4-4-4-4-4-4-4-4-4-4-4-|-5-5-5-5-5-5-5-5-7-7-7-7-7-7-7-7-|
Ab|-4-4-4-4-4-4-4-4-4-4-4-4-4-4-4-4-|-5-5-5-5-5-5-5-5-7-7-7-7-7-7-7-7-|
Db|-4-4-4-4-4-4-4-4-4-4-4-4-4-4-4-4-|-5-5-5-5-5-5-5-5-7-7-7-7-7-7-7-7-|


Also, there is the short bridge after the first chorus

eb|---------------|
Bb|---------------|
Gb|---------------|
Db|---------------|
Ab|---------------|
Db|<5>-<5>-<5>-<5>|

<> = natrual harmonic




Simple, no?

I've never even messed around with trying to get the bass part. If I ever do I'll be sure to share it.
Norgan is a real boy!


Return to “Two Tongues”

Who is online

Users browsing this forum: No registered users and 2 guests