Tremors

jakelsoe
Posts: 2
Joined: Mon Feb 02, 2009 11:46 pm

Tremors

Postby jakelsoe » Mon Feb 02, 2009 11:47 pm

i kinda sorta got it
im not sure its 100% right
ill post it it anyone really wants it

User avatar
the futile
Posts: 63
Joined: Sun Aug 10, 2008 7:56 pm

Re: Tremors

Postby the futile » Tue Feb 03, 2009 12:37 pm

go for it :)
You've got to go with the motion, oh
Can you feel it in your bones?

jets2brazil2700
Posts: 5
Joined: Tue Feb 03, 2009 1:03 am

Re: Tremors

Postby jets2brazil2700 » Tue Feb 03, 2009 3:09 pm

please post anything u got on this song. i just listened to the whole album its all crack but this is my favorite track and im jonesin to learn it!!! anything u got would be helpful

jakelsoe
Posts: 2
Joined: Mon Feb 02, 2009 11:46 pm

Re: Tremors

Postby jakelsoe » Tue Feb 03, 2009 8:05 pm

yea gimme like a day to tab it

skinnymeanman
Posts: 1
Joined: Fri Feb 06, 2009 2:24 am

Re: Tremors

Postby skinnymeanman » Fri Feb 06, 2009 2:25 am

i cant wait for the tab to be posted i love this song. deff my fav off the album

jets2brazil2700
Posts: 5
Joined: Tue Feb 03, 2009 1:03 am

Re: Tremors

Postby jets2brazil2700 » Sat Feb 07, 2009 2:39 pm

Not 100% but im gonna take a shot
VERSE
Fmiadd9 Dbadd9 Abadd9 Bb7sus4 Fmiadd9 Dbadd9 Ab5 Eb/Bb

eI-------------------------------------------------------------------------------------------------------- chorus- same progression but different strumming....
bI-------------------------------------------------------------------------------------------------------8
gI--5----------8------------------------8---------------------------------------------------8-----------8
dI--3--x2-----6--x2------8------------6-----x2---then repeat the first 2 but then --6-----------8
aI--3----------4-----------6---x2------8---------------------------------------------------6-----------6
eI--1----------------------4------------6---------------------------------------------------4------------6

BRIDGE

Dbmaj6/7 Bb7Sus4
eI-----4--------------------6----------------------
bI-----4--------------------6--------------------- Def. not 100% on the bridge but i think hes picking notes in these two chords
gI-----5--------------------8---------------------
dI-----8--------------------6---------------------
aI-----4--------------------8---------------------
eI---------------------------6--------------------


hopefully someone can help me out a little on this one cuz its def. one of the best on the record.....but i guess this is a start.

Twikki
Posts: 6
Joined: Tue Aug 05, 2008 11:54 am

Re: Tremors

Postby Twikki » Sun Feb 08, 2009 12:24 pm

i'll post what i got because it's very different to yours

e) --------------------------
B) --------------------------
G) 5-5--6-6---------8--8--
D) 6-6--6-6--6--6--8--8--
A) 3-3--4-4--6--6--6--6--
E) ------------4--4---------

The_Kevin_Divine
Posts: 8
Joined: Thu Aug 07, 2008 10:05 pm

Re: Tremors

Postby The_Kevin_Divine » Fri Feb 13, 2009 11:04 pm

alright well you guys play however you want ^^^^^^ thats alot of stretch chrods..... imma do it the easy way out for all my slacker friends

verse: (u strum each chord twice)
Am F Am F C G Am

chorus: (listen and ull get the beat)
Am F C C
Am F C G
do that twice ^^^^

do you know what would be awesome? if someone tabbed interlude for me. that'd be great.
So boo don't front like you've not heard of us.

James
Posts: 13
Joined: Tue Aug 05, 2008 6:29 am

Re: Tremors

Postby James » Mon Apr 13, 2009 4:06 pm

Here's my take on the intro chords of Tremors

Code: Select all

e|---------------------------------------------------------------|
B|---1-1-------4-4-----------------------------------------------|
G|---1-1------------5-5---8-8------------------------------------|
D|-------------6-6-----------------------------------------------|
A|-------------4-4--6-6---8-8------------------------------------|
E|---1-1------------4-4---6-6------------------------------------|

e|---------------------------------------------------------------|
B|---1-1-------4-4--4-4-----8-8----------------------------------|
G|---1-1---------------------------------------------------------|
D|-------------6-6----------8-8----------------------------------|
A|-------------4-4--6-6-----6-6----------------------------------|
E|---1-1------------4-4------------------------------------------|

User avatar
Norgan
Site Admin
Posts: 238
Joined: Wed Aug 26, 2009 10:30 pm
Location: Baltimore, MD
Contact:

Re: Tremors

Postby Norgan » Thu Dec 10, 2009 3:32 pm

I've been working on a guitar pro of this that has everything (both guitars, bass, drums, vocals) and I'm pretty sure is near perfect (or sounds close to it), except it doesn't have the distorted guitar during the interlude. Once it is done I'll definitely post it up here, unless anyone wants me to post it as is.

At any rate, these are the chords that I've found sound closest to the CD.

Code: Select all

Tuning: Half step down (E flat)

Intro/Verse:
eb|---------------|---------------|
Bb|---------------|-------------9-|
Gb|-6---9---6---9-|-6---9---9---9-|
Db|-7---7---7---7-|-7---7---7---9-|
Ab|-9---5---7---9-|-9---5---7---7-|
Eb|---------5-----|---------------|


Chorus:
eb|---------------|
Bb|---------------|
Gb|-6---9---6---9-|
Db|-7---7---7---7-|
Ab|-9---5---7---9-|
Eb|---------5-----|

The bridge before each verse is just the verse itself.
1st bridge only plays the first bar, though, not both.

Interlude:
still working on it

Outro:
eb|---------------|
Bb|---------------|
Gb|-6---9---------|
Db|-7---7---7-----|
Ab|-9---5---7-----|
Eb|---------5-----|



Some suggestions if you want to play it on acoustic:

Code: Select all

Without the bass, 2nd guitar, and distortion during the verse and chorus...

           |---|                                    |---|
           |---|                                    |---|
           |-9-|                                    |-9-|
the chord  |-7-|  i think sounds better played like |-9-|
           |-9-|                                    |-7-|
           |---|                                    |---|



Also. If you're playing acoustic you might be better off strumming these chords for the interlude.
You can do this on electric too, but it's not how it's played on the album.
It's how I've been playing it while I'm still figuring out the actual interlude.

eb|---------------------|---------------------|
Bb|---------------------|---------------------|
Gb|-9-------------------|-9-------------------|
Db|-7- strum as needed -|-7- strum as needed -|
Ab|-5-------------------|-9-------------------|
Eb|---------------------|---------------------|
Norgan is a real boy!


Return to “Two Tongues”

Who is online

Users browsing this forum: No registered users and 1 guest