Little folky riff

Musicians discuss things. Anything musician related. You can also use this forum to learn about the Say Anything sound! Discuss the gear, settings, and other misc things used by Say Anything in the studio and out: amps, guitars, effects, basses, drums-- whatever!
DhamaBum
Posts: 26
Joined: Mon Feb 23, 2009 2:27 am

Little folky riff

Postby DhamaBum » Tue Jan 26, 2010 8:24 pm

Been playin with this for a bit on and off, but not really doing anything with it. Add or improvise or something if you like, or just tell me how it sounds.

Code: Select all


Eb tuning
|--------------------------------------------------------------------------------------------------------|
|--------------------------------------------------------------------------------------------------------|
|-----------------6--------------------6---------------------------9-----------------------9------------|
|--------7---9---------7------7---9---------7-------7---9/11--------11------7---9/11------11------|
|---7/9---0---0----0----7/9---0---0----0----7/9---0--------0---0-----7/9---0----------0-----0---|
|---------------------------------------------------------------------------------------------------------|

|-----------------------------9-------------------------9------------|
|----------------------10-----------10----------10-----------10----|
|-------------9/11-------------11--------11-------------11--------|
|--------7----------0-----0-------------0-----0-----0---------------|
|---7/9---0-----------------------------------------------------------|
|------------------------------------------------------------------------|

|------------------------------------------------------------------------|
|------------------9---------------------9-------------------------------|
|-------------9----------9----------9----------9------------------------|
|------11------------11------11-----------11--------------------------|
|---0------0----0----------0-----0---0---------------------------------|
|------------------------------------------------------------------------| repeat from beginning

And maybe some funky chords like

eb|x       x
Bb|x       x
Gb|6       9
Db|7       6
Ab|9       7
Eb|x and x


OneHeartAtATime
Posts: 90
Joined: Sun Oct 10, 2010 12:13 am

Re: Little folky riff

Postby OneHeartAtATime » Mon Oct 18, 2010 7:31 pm

Looks fun, I'll definitely have to try it later (:


Return to “Musician Discussion”

Who is online

Users browsing this forum: No registered users and 1 guest