Fed To Death

nateorz
Posts: 34
Joined: Wed Oct 21, 2009 12:32 am
Location: San Antonio, TX
Contact:

Re: Fed To Death

Postby nateorz » Tue Dec 01, 2009 6:57 pm

maxpemis wrote:wow, I'm dumb. of course it's this slide. I thought it was it sounded lower,
what was i thinking. But i still think they hit some of this open strings on the cd
but it doesn't matter, we got the important parts of the riff. And this is the lead.
I think you're forever in our debt, smartalec1213 .


Eb |--------------------------------------------------|
Bb|---------------------------------------------------|
Gb|----------4-4-4-4\2-2-2-------------------------|
Db|-4/5-5-------------------------------------------|
Ab|-4/5-5-------------------------------------------|
Eb|-2/3-3-------------------------------------------|


lol, when I played what you posted, I was like "WTF that slide is WAY too high!" ;p
Every time I see your face, I die inside.

nateorz
Posts: 34
Joined: Wed Oct 21, 2009 12:32 am
Location: San Antonio, TX
Contact:

Re: Fed To Death

Postby nateorz » Wed Dec 02, 2009 6:04 pm

Just watched a vid and looked at what we have here, and this is what I personally came up with for the first verse. I think this is actually the lead riff, but if you want to just play the first part 4 times, I think that's the rhythm.

EDIT 1: Just think I figured out the "This is forever" part, added it in.

EDIT 2: Figured out outro...adding it in. Enjoy the song since I'm pretty sure it's done now lol.

EDIT 3: Moved post to the end of thread to find the tab easier because I'm a nice guy.

EDIT 4: After listening to it, the outro sounds like it's maybe a little high? I need feedback on that. I know the structure is at least right, though.

Code: Select all

Verse

E|--------------------------------------------------------------|
B|--------------------------------------------------------------|
G|------------------4-4-4-4\2-2-2--777777-----------------------|
D|-777--77---4/5-5-----------------777777--7777777777-----------|
A|-555--55---4/5-5-----------------555555--7777777777-----------|
E|-777--000--2/3-3-------------------------5555555555-----------|

E|--------------------------------------------------------------|
B|--------------------------------------------------------------|
G|------------------4-4-4-4\2-2-2--777777--7779999999-----------|
D|-777--77---4/5-5-----------------777777--7777777777-----------|
A|-555--55---4/5-5-----------------555555--xxxxxxxxxx-----------|
E|-777--000--2/3-3-------------------------5555555555-----------|

"This is forever"
*NOTE: I can tell you for a fact that when I listen to the Secret Origins version, the x577xx is being played by Max as 10x77xx because of how much more bass the E-string has than the A-string. Try it if you want but your hand might hate you.

E|--------------------------------------------------------------|
B|--------------------------------------------------------------|
G|-777--777--666--666-------------------------------------------|
D|-777--777--777--777-------------------------------------------|
A|-555--xxx--xxx--xxx-------------------------------------------|
E|------777--555--555-------------------------------------------|

Outro

E|-000--000--000--0000000--0------000--0--0----------0----------|
B|-000--000--000--0000000--0------000--0--0--------0---0--------|
G|-999--888--666--4444444--4/6\4--444--2--1----1-2-------2-1----|
D|--------------------------------------------------------------|
A|--------------------------------------------------------------|
E|--------------------------------------------------------------|

| /  slide up
| \  slide down
| h  hammer-on
| p  pull-off
| ~  vibrato
| +  harmonic
| x  Mute note
Every time I see your face, I die inside.

smartalec1213
Posts: 11
Joined: Fri Sep 26, 2008 4:36 pm

Re: Fed To Death

Postby smartalec1213 » Thu Dec 03, 2009 6:32 am

thanks everyone.....i've been playin it nonstop.....and thanks for correcting that slide.....i actually was gonna post the change because i figured it out yesterday...but don't know how to post it in tab format. And i think i figured out the "this is forever" part. Try this. And thanks again everyone....i can die happy.


000 000 000 000
000 000 000 000
777 777 222 222
555 777 222 222
777 555 000 000
xxx xxx 000 000

nateorz
Posts: 34
Joined: Wed Oct 21, 2009 12:32 am
Location: San Antonio, TX
Contact:

Re: Fed To Death

Postby nateorz » Thu Feb 04, 2016 12:17 pm

Code: Select all

Verse

E|--------------------------------------------------------------|
B|--------------------------------------------------------------|
G|------------------4-4-4-4\2-2-2--777777-----------------------|
D|-777--777---------0-0-0-0-0-0----777777--7777777777-----------|
A|-555--550--4/5-5-----------------555555--7777777777-----------|
E|-777--550--2/3-3-------------------------5555555555-----------|

E|--------------------------------------------------------------|
B|--------------------------------------------------------------|
G|------------------4-4-4-4\2-2-2--777777-----9999999-----------|
D|-777--77---4/5-5-----------------777777--777xxxxxxx-----------|
A|-555--55---4/5-5-----------------555555--7777777777-----------|
E|-777--000--2/3-3-------------------------5555555555-----------|

"This is forever"


E|--------------------------------------------------------------|
B|--------------------------------------------------------------|
G|-777--777--666--666-------------------------------------------|
D|-777--777--777--777-------------------------------------------|
A|-555--xxx--xxx--xxx-------------------------------------------|
E|------777--555--555-------------------------------------------|

Outro

E|-----------------------------------------------------------------------|
B|-----------------------------------------------------------------------|
G|-----------------------------------------------------------------------|
D|-----------------------------------------------------------------------|
A|-12-12-12-11-11-11-9-9-9-7-7-7-7-7-7-7-7/9/7-7-7-7-5-4---4-4-4-4-4-4-4-|
E|-----------------------------------------------------------------------|

| /  slide up
| \  slide down
| h  hammer-on
| p  pull-off
| ~  vibrato
| +  harmonic
| x  Mute note


I listened to this again last night because I like the Secret Origins version. I don't know if the outro is correct still because there's a 2nd guitar layered over that's playing chords but it's so quiet that the single-note lead line seems to work fine. Should be in the correct key finally. Hopefully someone actually sees this as it appears the website has been completely inactive, aside from bots, since it came back up.
Every time I see your face, I die inside.


Return to “Say Anything”

Who is online

Users browsing this forum: No registered users and 1 guest