Eloise

nateorz
Posts: 34
Joined: Wed Oct 21, 2009 12:32 am
Location: San Antonio, TX
Contact:

Eloise

Postby nateorz » Wed Oct 21, 2009 5:52 pm

Hi, I'm Nate and this is my first post here. I don't usually tab stuff out but I watched vids of people covering it on YouTube last night and I just don't like this song when it's played wrong. I just checked, AFTER tabbing this out in the message box, to see if this was the first tab for this on the internet at all. Found the one on ultimate-guitar.com but it's horrible, so I guess I'm good. Feedback appreciated.

Tabbed from this video:
http://www.rollingstone.com/videos/player/30096848

Code: Select all

Worked this out the other night. Pretty sure it's 99-100% accurate. No strum pattern included but it's not hard to figure out from the vid. Tuning is half-step down.

Verse Picking
*Note: Max plays a slight variation during one of these "4 note sets" in the video but I think it was accidental.

E|--------------------------------------------|
B|--------------------------------------------|
G|------3-------3-----------------------------|
D|--------4---4---4-----4-------4-------------|
A|----2-----2---------4---4---2---2-----------|
E|--4---------------2-------0-----------------|

Verse Chords
*Note: They're basically just the picked notes put together, if that helps anyone.

E|--------------------------------------------|
B|--------------------------------------------|
G|--3---3---3---3-----------------------------|
D|--4---4---4---4-----------------------------|
A|--2---2---4---2-----------------------------|
E|--4---0---2---0-----------------------------|

Chorus Chords
*Note: Max also sometimes continues to hold down on the G string when he slides up and plays 4665xx.

E|--------------------------------------------|
B|--------------------------------------------|
G|--4---3---3---------------------------------|
D|--4---4---4---6-----------------------------|
A|--2---2---4---6-----------------------------|
E|--0---4---2---4-----------------------------|

Spoken Word Chords ("Band-aid, just a bloody band-aid......to see who drops it first")
*Note: Max doesn't play 244xxx on every repeat.

E|--------------------------------------------|
B|--------------------------------------------|
G|--3---3-------------------------------------|
D|--4---4---4---4---4-------------------------|
A|--2---4---2---2---4-------------------------|
E|--4---2---0---2---2-------------------------|
Every time I see your face, I die inside.

User avatar
Scott
Site Admin
Posts: 540
Joined: Sat Aug 02, 2008 11:33 am
Location: Maryland
Contact:

Re: Eloise

Postby Scott » Sun Oct 25, 2009 2:36 pm

From what I remember of it this sounds pretty solid. Good job
Self-inflicted or not, I find myself on the farthest star, foreign to everything like I woke up with a German tongue.

User avatar
Barry Egan
Posts: 95
Joined: Mon Aug 04, 2008 2:09 pm
Contact:

Re: Eloise

Postby Barry Egan » Thu Oct 29, 2009 1:35 am

For the album it's up a step.
Image

nateorz
Posts: 34
Joined: Wed Oct 21, 2009 12:32 am
Location: San Antonio, TX
Contact:

Re: Eloise

Postby nateorz » Thu Oct 29, 2009 7:56 pm

Barry Egan wrote:For the album it's up a step.


Yeah definitely. Not surprised by this as he seems to always play acoustic stuff a half step down.
Every time I see your face, I die inside.


Return to “Say Anything”

Who is online

Users browsing this forum: No registered users and 1 guest