Mara and me

jets2brazil2700
Posts: 5
Joined: Tue Feb 03, 2009 1:03 am

Mara and me

Postby jets2brazil2700 » Fri Nov 27, 2009 2:36 am

the only really awesome track on the new record in my opinon...reminds me of is a real boy...
tuning: down 1/2 step
intro
(keys) last time
e|------------------------------------------------------------------------|
B|-----33----00----33---00-----00-----00-----------------------------|
G|-----00----00----00---00-----00-----00----22---22----------------| 2 5555
D|-----------------------------------------------44---44--x2-----------| 0 xxxx
A|--3-----3------3-----3---------------------5-----5-------------------| 4 7777
E|-----------------------------0-------0---------------------------------|

verse (im just a man with no face and no friends...)

e|---------------------------------------------------------------------/14--/10-|
B|--------------------------------------------------------------------------------|
G|--------------------------------------------777-----------111111------------|
D|------22---2222---2-----2222------------------------------------------------|
A|------11---1111---1-----1111--x2--777------101010----------------------|
E|---88----8-------88--88------------------------------------------------------|

I cant define myself through irony...
(x2) 2nd part last time
e|-----------------------3----3---3------5---5---5--32-3-3-----------I
B|-----1-0-0------4/5----5----5---6/7---7---7----33-5-3-----------|
G|-----------0----------------------------------------------------------|
D|-------------0--------------------------------------------------------|
A|--3-------------------------------------------------------------------|
E|-----------------------------------------------------------------------|

solo

e|----------------------------------------------------------------------|
B|----------------------------------------------------------------------|
G|-------------9-----5------------------------------------------------|
D|--55---------9-----5 x8--------------------------------------------|
A|--55---------7-----3-----------------------------------------------|
E|--33----------------------------------------------------------------|

e|----------------------------------------------------------------------|
B|-----1p0----------------- 12- 12---------------------------------|
G|---------2-0----------0--12- 11--------0-------------------------|
D|--------------0000h2---------------0h2-------0-----0------------ |
A|--------------------------------------------2h3--3p2---------------|
E|-33------------------------------------------------------------------|

e|----------------------------------------------------------------|
B|----------------------------------------------------------------|
G|--------------9------------------------------------------------|
D|-5------------9---------12-------------------------------------|
A|-5------------7---------12-------------------------------------|
E|-3------------------------8------------------------------------|

jets2brazil2700
Posts: 5
Joined: Tue Feb 03, 2009 1:03 am

Re: Mara and me

Postby jets2brazil2700 » Fri Nov 27, 2009 2:39 am

gimme a few days to tab the rest

uiop21
Posts: 16
Joined: Fri Aug 22, 2008 4:15 am

Re: Mara and me

Postby uiop21 » Sat Nov 28, 2009 2:40 am

Nice, definitely a good start, I think that that Eb needs to be dropped to a Db though, for the intro atleast. Great start though!

smartalec1213
Posts: 11
Joined: Fri Sep 26, 2008 4:36 pm

Re: Mara and me

Postby smartalec1213 » Thu Dec 03, 2009 6:37 am

awesome dude.....thanks.....i figured mara and me would def be one of the last to be tabbed because it's got like 8 different parts.....i def want to learn the very last guitar part of the song with the insane solos mixed in......is it just me or are their guitar chops getting more insanely awesome?

ratherripped1
Posts: 2
Joined: Sun Nov 22, 2009 8:03 pm

Re: Mara and me

Postby ratherripped1 » Fri Dec 04, 2009 6:30 pm

not trying to one-up jets2brazil2700 or anything like that, but this i got for the song

Tuning: Half-Step Down (Eb, Ab, Db, Gb, Bb, eb)
intro
eb| ---------------------------------------------------------------------------------------------------------------
Bb| ---------------------------------------------------------------------------------------------------------------
Gb| ----------------------(organ/keyboard plays here)---------------------------------------------------
Db| --6---6---6---6---------------------------------------------------------------------------------------------
Ab| --6---6---6---6---------------------------------------------------------------------------------------------
Eb| --4---4---4---4----------------------------------------------------------------------------------------------

at about 0:18 seconds (i dont suck much less...):
eb| --------------------------------------------------------------------------------------------------------------
Bb| ------------3---3-3--x--8---8-8-8-8---3-3---3--x--8-x-x-x-8------------------------------------
Gb| -7--7--7---5---5-5--x--7---7-7-7-7---5-5---5--x--7-x-x-x-7--------777--------111111----
Db| -x--x--x---5---5-5--x--5---5-5-5-5---5-5---5--x--5-x-x-x-5------------------------------------
Ab| -5--5--5---3---3-3--x--5---5-5-5-5---3-3---3--x--5-x-x-x-5---777-----101010--------------
Eb| --------------------------------------------------------------------------------------------------------------
then
eb| --/14--/10---------------|
Bb| ---------------------------|
Gb| --------------7--------7-|
Db| ---------------------------|
Ab| -----------------5-5-5---|
Eb| ---------------------------|

about 0:40 (im just a man with no face and no friends...)
eb| ---------------------------------------------------------------------------------------------------------------
Bb| ----------------3---3-3---3-3--x-x-x-x---3-3---3---3-3--x-x-x-x-----------------------------------
Gb| -7-7-7-7-7-7--5---5-5---5-5--x-x-x-x---5-5---5---5-5-x-x-x-x---------777---------111111--
Db| -x-x-x-x-x-x--5---5-5---5-5--x-x-x-x---5-5---5---5-5--x-x-x-x-----------------------------------
Ab| -5-5-5-5-5-5--3---3-3---3-3--x-x-x-x---3-3---3---3-3--x-x-x-x---777------101010-----------
Eb| ---------------------------------------------------------------------------------------------------------------
then
eb| --------------------------------------------|
Bb| ----------------8p7----------3-3-3-----|
Gb| -7--------9p7-------x-x-7---5-5-5-----|
Db| ---0-5p4------------x-x-x---5-5-5-----|
Ab| --------------------x-x-5---3-3-3-----|
Eb| --------------------------------------------|

about 0:55 (I can’t define myself...)
eb| -------------------------------------------3---3--3----5--5--5-----
Bb| ----3--1--0---------3--1--0------------/5---5---5---/7--7--7-------
Gb| --------------0-----------------0-----------------------------------
Db| -----------------0-----------------0---------------------------------
Ab| -3-----------------3-------------------------------------------------
Eb| -----------------------------------------------------------------------
then
eb| --------------------------------------------3--3--3-| Guitar eb|--3---2---------3---|
Bb| ----3--1--0----------3--1--0-------------/5--5--5---|-1---Bb|-----------3/5-------|
Gb| --------------0-----------------0-------------------|
Db| -----------------0-----------------0----------------| Guitar Bb|--5---5---5-----5--|
Ab| -3-----------------3-----------------3--------------|---2--Gb|--7---7---7b9--7--|
Eb| ------------------------------------------------------|

about 1:11
eb| ------------------------------------------------------------------------------
Bb| ---------(bass plays here)----------------------------------------------
Gb| ----------------------------------------------9------5-5-5-5-5-5-5-5---
Db| --5--5--------------------------x-x-5-------9------5-5-5-5-5-5-5-5---
Ab| --5--5--------------------------x-x-5-------7------3-3-3-3-3-3-3-3---
Eb| --3--3--------------------------x-x-3--------------------------------------

eb| ------------------------------------7--7-----------------------
Bb| -------1p0---------------------8--7--------------------------
Gb| ------------2p0-----------0-----------------0-----------------
Db| -5--5------------0000h2----------------0h2--------0----------
Ab| -5--5-------------------------------------------2h3---3p2----
Eb| -3--3----------------------------------------------------------

eb| ---------------------------------------------------------------------------|
Bb| ---------------------------------------------------------------------------|
Gb| -------------------------------9--9--9-9-9-5--5-5--5-5-5-5---|
Db| -5--5--5-5-5-5--5-5--5-5-x-x-9--9--9-9-9-5--5-5--5-5-5-5---|
Ab| -5--5--5-5-5-5--5-5--5-5-x-x-7--7--7-7-7-3--3-3--3-3-3-3---|
Eb| -3--3--3-3-3-3--3-3--3-3-x-x---------------------------------------|

Guitar break from 1:31 to 1:40
then at 1:41 (we cant afford to surrender...) ------------------------ (we cant afford!)
eb| ---------------------------------------------------------------------------|---------------------------|
Bb| ---------------------------------------------------------------------------|--------------------------|
Gb| -12-12-12-12-------12-12-12-12-12/11-11-11-11/12-12-12-|-12-12-12-12--------|
Db| --x---x---x---x--(x6)---x--x---x--x--x-x-x-x-x-x-x-x-x-|--x--x--x--x--(x3)-|
Ab| -10-10-10-10--------10-10-10-10-10/9 -9 - 9 -9/ 10-10-10--|-10-10-10-10--------|
Eb| ---------------------------------------------------------------------------|--------------------------|

about 1:48 ---------------------(harmonic)
eb| -------------------------------{5}---------|-----------------------------
Bb| -------------------------------{5}---------|----------------------------
Gb| -------------------------------{5}---------|---------------------------
Db| -7-7-7-7-7-7-7-7-7-7-7-5-7--{5}-(x3)----|--7-7-7-7-7-7-7-7-----
Ab| -7-7-7-7-7-7-7-7-7-7-7-5-7--{5}---------|--7-7-7-7-7-7-7-7-----
Eb| -5-5-5-5-5-5-5-5-5-5-5-3-5--{5}----------|-5-5-5-5-5-5-5-5-----

at about 1:53, guitar 2 kicks in with
eb| -5-5-5-5-5-5-5-5-5-5-5-3-5----------------5-5-5-5-5-5-5-5------------
Bb| -5-5-5-5-5-5-5-5-5-5-5-3-5----------------5-5-5-5-5-5-5-5---------
Gb| -2-2-2-2-2-2-2-2-2-2-2-2-2---------------2-2-2-2-2-2-2-2----------
Db| ---------------------------------------------------------------------------------
Ab| --------------------------------------------------------------------------------
Eb| ---------------------------------------------------------------------------------

then at 1:57
guitar 1
eb| -----------------------------------------|
Bb| --------8--10--8----------------------|
Gb| -7--9--------------9--7---------------|
Db| ---------------------------10-----------|
Ab| -------------------------------10-------|
Eb| -----------------------------------------|

guitar 2
eb| -----------------------------------------|
Bb| ----------------------------------------|
Gb| ----------------------------------------|
Db| ---------5--7--5----------------------|
Ab| -5--7-------------7--5----------------|
Eb| ----------------------------8--3-------|

at 1:59
eb| -5-5--5---5-5--5---8-8--8---8-8--8---5-5--5---5-5--5---8-8--8-------3-----------------|
Bb| -5-5--5---5-5--5---8-8--8---8-8--8---5-5--5---5-5--5---8-8--8--3-5---5-3------------|
Gb| -2-2--2---2-2--2---5-5--5---5-5--5---2-2--2---2-2--2---5-5--5--------------5---(x2)--|
Db| -----------------------------------------------------------------------------------------------------|
Ab| -----------------------------------------------------------------------------------------------------|
Eb| -----------------------------------------------------------------------------------------------------|

at 2:27-------------------------------------------------------------------------------------- (harmonic)
eb| -3---3---0---0---0-----3----3----0----3----5--3-----------3---3----0---0---0---0-------{12}------|
Bb| --3---3---3---3---3--3--3----3----3----3--------------------3---3----3---3---3---3-3--------------|
Gb| ---5---5---5---5---5------5----5----5----5--5--5---(x3)-------5---5---5---5---5---5---------------|
Db| -------------------------------------------------------------------------------------------------------------|
Ab| -------------------------------------------------------------------------------------------------------------|
Eb| -------------------------------------------------------------------------------------------------------------|

at 3:02
eb| --------------------------------------------------------------7-7-7-7----------------
Bb| --------------------------------------------------------------8-8-8-8----------------
Gb| -5-5-5-4-4-4-5-5-5-4-4-4-5-5-4-4-5-5-5-4-4-4-7-7-7-7-7-7-5-5-5-5---(x3)--------
Db| -5-5-5-5-5-5-5-5-5-5-5-5-5-5-5-5-5-5-5-5-5-5-5-5-5-5-5-5--------------------------
Ab| -x-x-x-x-x-x-x-x-x-x-x-x-x-x-x-x-3-3-3-3-3-3-3-3-3-3-3-3---------------------------
Eb| -5-5-5-5-5-5-5-5-5-5-5-5-5-5-5-5----------------------------------------------------------
then 3:24
eb| ----------------------------------------------------------------------------------------------------
Bb| --------------------------------------------------------------------------/8-8--------------
Gb| -5-5-5-4-4-4-5-5-5-4-4-4-5-5-4-4-5-5-5-4-4-4-7-7-7-7-7-7-5-5-------------------
Db| -5-5-5-5-5-5-5-5-5-5-5-5-5-5-5-5-5-5-5-5-5-5-5-5-5-5-5-5-5-5-------------------
Ab| -x-x-x-x-x-x-x-x-x-x-x-x-x-x-x-x-3-3-3-3-3-3-3-3-3-3-3-3-3-3--------------------
Eb| -5-5-5-5-5-5-5-5-5-5-5-5-5-5-5-5---------------------------------------------------------

at 3:31
eb| -x-x-x-x-x-x-x-x-x-x-x-x------------------------------------------------------------------8p7---
Bb| -x-x-x-x-x-x-x-x-x-x-x-x---------------------------1p0---------------------------8h10----------8-
Gb| -x-x-x-x-x-x-x-x-x-x-x-x----------------------0h2-----0--------------------7h9--------------
Db| -x-x-x-x-x-x-x-x-x-x-x-x--7--7-7--7-7-7--0h2--------------7--7-7--7-7-7--------------------
Ab| -x-x-x-x-x-x-x-x-x-x-x-x--7--7-7--7-7-7--------------------7--7-7--7-7-7--------------------
Eb| -x-x-x-x-x-x-x-x-x-x-x-x--5--5-5--5-5-5---------------------5--5-5--5-5-5--------------------
then at 3:37
eb| -----------------------------------------------------7-7-7-7-7-7-7-7--
Bb| -3--3-3--3-3-3-x-8-8-8-8-8-8-8-8--3--3-3--3-3-3-3-5-5-5-5-5-5-5-5--
Gb| -5--5-5--5-5-5-x-7-7-7-7-7-7-7-7--5--5-5--5-5-5-5-5-5-5-5-5-5-5-5--
Db| -5--5-5--5-5-5-x-5-5-5-5-5-5-5-5--5--5-5--5-5-5-5-5-5-5-5-5-5-5-5--
Ab| -3--3-3--3-3-3-x-5-5-5-5-5-5-5-5--3--3-3--3-3-3-3-----------------------
Eb| ---------------------------------------------------------------------------------------
3:42
eb| ------------------12p0-10p0--8p7-------------------/5--/7--/8--/10-----
Bb| ----------------------------------8----------------------------------------
Gb| --------------------------------------------------------------------------------
Db| -7--7-7--7-7-7-----------------------7--7-7--7-7-7----------------------
Ab| -7--7-7--7-7-7-----------------------7--7-7--7-7-7---------------------
Eb| -5--5-5--5-5-5-----------------------5--5-5--5-5-5----------------------
3:46
eb| -------------------------------------------------------------------
Bb| -3--3-3--3-3-3-x-8-8-8-8-8-8-8-8--3--3-3--3-3-3-3---
Gb| -5--5-5--5-5-5-x-7-7-7-7-7-7-7-7--5--5-5--5-5-5-5---
Db| -5--5-5--5-5-5-x-5-5-5-5-5-5-5-5--5--5-5--5-5-5-5---
Ab| -3--3-3--3-3-3-x-5-5-5-5-5-5-5-5--3--3-3--3-3-3-3---
Eb| ------------------------------------------------------------------
3:49
eb| -8p7-5-----------10-12-----------------------|
Bb| --------8-5h7h8-----13----------------------|
Gb| --------------------12----------------------|
Db| ------------------------------------------------|
Ab| ------------------------------------------------|
Eb| ------------------------------------------------|

So thats what i got. its such a good song. probably the best on the album. hope this tab worked for you!

User avatar
GoodleShoes
Posts: 8
Joined: Mon Jan 04, 2010 10:16 pm

Re: Mara and me

Postby GoodleShoes » Tue Jan 05, 2010 7:42 pm

Doesn't exactly have to do with the tab but which member sings the part, Everything that you do, keep me running back to you?
Everything that you do, keeps me running back to you.
Can't give up, live the dream even if I don't believe.

ratherripped1
Posts: 2
Joined: Sun Nov 22, 2009 8:03 pm

Re: Mara and me

Postby ratherripped1 » Tue Jan 05, 2010 8:38 pm

GoodleShoes wrote:Doesn't exactly have to do with the tab but which member sings the part, Everything that you do, keep me running back to you?

the drummer, Coby Linder.

User avatar
GoodleShoes
Posts: 8
Joined: Mon Jan 04, 2010 10:16 pm

Re: Mara and me

Postby GoodleShoes » Tue Jan 05, 2010 10:41 pm

Thanks!
Everything that you do, keeps me running back to you.
Can't give up, live the dream even if I don't believe.


Return to “Say Anything”

Who is online

Users browsing this forum: No registered users and 1 guest