Narcissus

maxpemis
Posts: 31
Joined: Mon Nov 30, 2009 6:30 pm

Narcissus

Postby maxpemis » Wed Jan 13, 2010 9:36 pm

Anyone got anything on this song?
I think i might have something to work off of. I'll post it in a few days.

James
Posts: 13
Joined: Tue Aug 05, 2008 6:29 am

Re: Narcissus

Postby James » Sun Jan 17, 2010 5:12 pm

I'll be able to type up a full tab of this when I get home tomorrow. I'd say it's pretty accurate.

User avatar
the futile
Posts: 63
Joined: Sun Aug 10, 2008 7:56 pm

Re: Narcissus

Postby the futile » Sun Jan 17, 2010 6:49 pm

i found this;

Code: Select all

 VERSE:
e|----------3-----0-----3-----------3-----0------3-------3-----3-----------|
B|----3-------------0--------3--------------0--------------3---------------|
G|------4-------------0--------4--------------0----------------------------|
D|--------5-----0----------------5------0-------------2------2-------------|
A|--3----------------------3-----------------------------------------------|
E|-------------------------------------------------------------------------|

FIRST ENDING:
e|-----2-------2--------3------3-[----3---0--------------------------------|
B|-------3-------3--------3------[--------3--------------------------------|
G|-------------------------------[--------0-x4-----------------------------|
D|--0-------0--------2------2----[-2------2--------------------------------|
A|-------------------------------[--------3--------------------------------|
E|-------------------------------[-----------------------------------------|

            SECOND ENDING:
e|------------------[---------2--------------------------------------------|
B|------------------[--3------3--------------------------------------------|
G|------------------[---------0--------------------------------------------|
D|---REPEAT VERSE---[----2----0--------------------------------------------|
A|------------------[------------------------------------------------------|
E|------------------[------------------------------------------------------|

   PRECHORUS
e|----------------------------0--------------------------------------------|
B|----------------------------0--------------------------------------------|
G|----5-X2----9---X2---5-X2---0--------------------------------------------|
D|----5-------9--------5------2--------------------------------------------|
A|----3-------7--------3------2--------------------------------------------|
E|-------------------------------------------------------------------------|

  CHORUS
e|--------0-----0----0----0----0-----0-------------------------------------|
B|--------0-----0----5----0----0-h3--2-------------------------------------|
G|--5-----9-----4----5----7----2-----2-X4--(strumming pattern not shown)---|
D|*-5-x3*-9-----4----5----7----2-----2-------------------------------------|
A|--3-----7-----2----3----5----0-----0-*not in first part of first chorus*-|
E|-------------------------------------------------------------------------|

e|-------------------------------------------------------------------------|
B|------------------------------------------------------------3------------|
G|-repeat verse until first ending, & beginning is just:---------4---------|
D|-------------------------------------------------------------------------|
A|----------------------------------------------------------3--------------|
E|-------------------------------------------------------------------------|

e|-----0----0-----------3-----2--------------------------------------------|
B|-----3----5-----------3-----3--------------------------------------------|
G|-----0----0--x2-------0-----0---x2-------(strumming pattern not shown)---|
D|-----2----4-----------2-----0--------------------------------------------|
A|-----3----5-----------2--------------------------------------------------|
E|-----------------------------------------THEN REPEAT PRECHORUS & CHORUS--|




   BRIDGE
e|-------------------------------3------------5-------\--------------------|
B|------3-----------3----------------------------------\-------------------|
G|----0---0-------0---0--------0---0--------0---0-------\------------------|
D|-----------X2----------X2--2--------X2--4-------X2----/-X2---------------|
A|---------------3-------------------------------------/-------------------|
E|--3-------------------------------------------------/--------------------|

e|---3--0--3--2------------------------------------------------------------|
B|---3--3--3--3------------------------------------------------------------|
G|---0--0--0--2---(STRUMMING PATTERN NOT SHOWN)----------REPEAT CHORUS-----|
D|---0--2--2--0---------------------------------------------UNTIL END------|
A|---2--3--2---------------------------------------------------------------|
E|---3---------------------------------------------------------------------|
You've got to go with the motion, oh
Can you feel it in your bones?

James
Posts: 13
Joined: Tue Aug 05, 2008 6:29 am

Re: Narcissus

Postby James » Mon Jan 18, 2010 8:47 pm

Here's my version. If there's any interpretation problems I can put up a video if requested.

Code: Select all

Verse (repeat as necessary)
e|-----------3------------3-----------------3-------------3------------------|
B|-----3-0---------5-0--------------3-0------------5-0-----------------------|
G|---------------------------------------------------------------------------|
D|---------------0-----0-------------------------0-----0---------------------|
A|---3-----3---------------------3-------3-----------------------------------|
E|---------------------------------------------------------------------------|
  "In love with yourself..."
e|-----3-------3-----2------2-----------3------3-----3-----------------------|
B|-------0-------------0------0-----------0---------------333----------------|
G|---------------------------------------------------------------------------|
D|--2-------2-----0-------0----------2-------2-----2-------------------------|
A|--------------------------------------------------------222----------------|
E|---------------------------------------------------------------------------|
  "the acid rain..."                                 "...bloodied and gripped"


End of verse - Pre-chorus
e|--333----2-----------------------------------------------------------------|
B|---------0-----------------------------------------------------------------|
G|---------0-------------5-------5---------4-----4-------5---555---4---------|
D|--222----0-------------5-------5---------4-----4-------5---555---4---------|
A|-----------------------------------------2-----2-----------------2---------|
E|-------------------5---5---5---5-----0------0------5---5---555---0---------|
"..fall for yourself"                                 "...after all he loved you"


Chorus
e|---3----3----3----3---3---------3---3---3---3---3-----------333------------|
B|---3----3----3----3---3---3-2---3---3---3---3---3---3-3-----333------------|
G|---0----0----0----2---2---------0---0---0---2---2-----------000------------| x 2
D|---2----0----2----0---2---2-2---2---0---2---0---2---2-2-----222------------|
A|---2----2----3----0---0---0-0---2---2---3---0---0---0-0-----333------------|
E|---0----3-----------------------0---3--------------------------------------|


e|--333----------------------------------------------------------------------|
B|--333----------------------------------------------------------------------|
G|--000----9-----------------------------------------------------------------|
D|--222----9-----------------------------------------------------------------|
A|--333----7-----------------------------------------------------------------|
E|---------------------------------------------------------------------------|
  "...I'd rather die!"


e|---------------------------------------------------------------------------|
B|---33333333-----5555555----333333333-----5555555---------------------------|
G|---00000000-----0000000----000000000-----0000000---------------------------|
D|---------------------------------------------------------------------------|
A|---33333333-----5555555----333333333-----5555555---------------------------|
E|---------------------------------------------------------------------------|
  "My friends never liked you...go fishing for snakes"


e|---------------------------------------------------------------------------|
B|--88888888----7777777----888888--8--8------7-------------------------------|
G|--00000000----0000000----000000--0--0------0-------------------------------|
D|--00000000----0000000----000000--0--0------0-------------------------------|
A|--77777777----5555555----777777--7--7------5-------------------------------|
E|---------------------------------------------------------------------------|
  "got no alibi...you won't convince me the devil's a reasonable guy"



Bridge. Play as noted twice then strum as chords.
e|----------------------------------------7-------7--------5-------5---------|
B|---------------------------------------------------------------------------|
G|------0-------0--------0-------0-------------------------------------------|
D|----0---0---0---0----0---0---0---0----0---0---0---0----0---0---0---0-------|
A|--2-------2--------3-------3--------7-------7--------5-------5-------------|
E|---------------------------------------------------------------------------|
"Baby you'll be dying soon..."

User avatar
Scott
Site Admin
Posts: 540
Joined: Sat Aug 02, 2008 11:33 am
Location: Maryland
Contact:

Re: Narcissus

Postby Scott » Tue Jan 19, 2010 9:12 am

Videos are always preferred, but you should just cover the song and put it in the new section.
Self-inflicted or not, I find myself on the farthest star, foreign to everything like I woke up with a German tongue.

User avatar
Stahn
Posts: 3
Joined: Mon Feb 22, 2010 11:22 pm

Re: Narcissus

Postby Stahn » Mon Feb 22, 2010 11:43 pm

I posted a vid of me playing Narcissus in the Play Say Anything video board. It's not based on any of the tabs here, so check out my version if you're curious. It's a little different, but it sounds more or less the same. I didn't tab it, but it's pretty clear in the vid what I'm doing: http://www.playsa.net/phpbb/viewtopic.php?f=24&p=980#p980
Under the influence.


Return to “Say Anything”

Who is online

Users browsing this forum: No registered users and 1 guest