Ahh, Men

User avatar
Norgan
Site Admin
Posts: 238
Joined: Wed Aug 26, 2009 10:30 pm
Location: Baltimore, MD
Contact:

Re: Ahh, Men

Postby Norgan » Tue Jan 05, 2010 7:12 pm

I think you mean this...

Code: Select all

Fill 1

E |----------------------------------|
B |----------------------------------|
G |----------------------------------|
D |-1-------8---------8-----11-------|
A |-2-------9-----------9------------|
E |-2-------9-------------9----------|


Fill 2

E |----------------------------------|
B |----------------------------------|
G |-------------------------11-------|
D |-1-------8---------8--------------|
A |-2-------9-----------9------------|
E |-2-------9-------------9----------|
Norgan is a real boy!

User avatar
GoodleShoes
Posts: 8
Joined: Mon Jan 04, 2010 10:16 pm

Re: Ahh, Men

Postby GoodleShoes » Tue Jan 05, 2010 7:38 pm

GAH. You know, I thought I did something right for once.
Everything that you do, keeps me running back to you.
Can't give up, live the dream even if I don't believe.

User avatar
Norgan
Site Admin
Posts: 238
Joined: Wed Aug 26, 2009 10:30 pm
Location: Baltimore, MD
Contact:

Re: Ahh, Men

Postby Norgan » Tue Jan 05, 2010 11:48 pm

No worries. You pretty much had it.
Norgan is a real boy!

User avatar
GoodleShoes
Posts: 8
Joined: Mon Jan 04, 2010 10:16 pm

Re: Ahh, Men

Postby GoodleShoes » Wed Jan 06, 2010 2:26 pm

Thanks, and thanks for correcting me also. =D
Everything that you do, keeps me running back to you.
Can't give up, live the dream even if I don't believe.

cannon64
Posts: 3
Joined: Tue Mar 23, 2010 6:35 pm

Re: Ahh, Men

Postby cannon64 » Tue Mar 23, 2010 6:45 pm

I don't think the 233 on the DAE string is right, I thought this sounded more like the cd



Intro (Optional)



E|----------------------------------------|
B|----------------------------------------|
G|-9-9-9-9-9-9-9-------11-11-11-11--|
D|-9-9-9-9-9-9-9-9-9-9--8--8--8--8--|
A|-6-6-6-7-7-7-7-9-9-9--9--9--9--9--|
E|------------------7-7-7----------------|
PM PM PM PM

Verse

E|-------------------------------------------|
B|-------------------------------------------|
G|------------------------------------------|
D|-1~8-88--1~8-88--1~8--88--1~8-88--| x 7
A|-2~9-99--2~9-99--2~9--99--2~9-99--|
E|-2~9-99--2~9-99--2~9--99--2~9-99--|


Chorus

E|-------------------------------------------|
B|-------------------------------------------|
G|-9-9-9-9-9-9-9-------11-11-11-11-----|
D|-9-9-9-9-9-9-9-9-9-9--8--8--8--8------| x 4
A|-6-6-6-7-7-7-7-9-9-9--9--9--9--9------|
E|------------------7-7-7-------------------|

"There's a crack..........in its fluorescent swirl,"
E|--------------------------------------------------------|
B|--------------------------------------------------------|
G|11-11-11--11-11-11-11--11-11-11--11-11-11-11-|
D|-9--9--9---9--9--9--9------9--9--9----8---8--8--8--|
A|-6--6--6---7--7--7--7------9--9--9----9---9--9--9--|
E|------------------------------7--7--7----7---7--7--7--|


"Eat us up...............and a window to hell,"
E|---------------------------------------------------------|
B|--------------------------------------------------------|
G|11-11-11--11-11-11-11--11-11-11--11-11-11-11-|
D|-9--9--9---9--9--9--9-----9--9--9-----8---8--8--8-|
A|-6--6--6---7--7--7--7-----9--9--9-----9---9--9--9-|
E|-----------------------------7--7--7-----7---7--7--7-|

"Where those who.........displayed what they've done,"
E|---------------------------------------------------------|
B|---------------------------------------------------------|
G|11-11-11--11-11-11-11--11-11-11--11-11-11-11-|
D|-9--9--9---9--9--9--9------9--9--9-----8--8--8--8-|
A|-6--6--6---7--7--7--7------9--9--9-----9--9--9--9-|
E|------------------------------7--7--7-----7--7--7--7-|

"They'll be shot up......reluctantly let them in,"
E|--------------------------------------------------------|
B|--------------------------------------------------------|
G|11-11-11--11-11-11-11--11-11-11--11-11-11-11-|
D|-9--9--9---9--9--9--9------9--9--9-----8--8--8--8-|
A|-6--6--6---7--7--7--7------9--9--9-----9--9--9--9-|
E|------------------------------7--7--7-----7--7--7--7-|


E|-------------------------------------------|
B|------------------------------------------|
G|------------------------------------------|
D|-1~8-88--1~8-88--1~8--88--1~8-88--|
A|-2~9-99--2~9-99--2~9--99--2~9-99--|
E|-2~9-99--2~9-99--2~9--99--2~9-99--|


whenever max picks he goes

E|-----------------------------------|
B|-----------------------------------|
G|--------------------------11------|
D|-8-------11----8-----------------|
A|---9--------------9---------------|
E|------9--------------9------------|

User avatar
Norgan
Site Admin
Posts: 238
Joined: Wed Aug 26, 2009 10:30 pm
Location: Baltimore, MD
Contact:

Re: Ahh, Men

Postby Norgan » Wed Mar 24, 2010 12:17 pm

Firstly, put your tabs in [ code ] tags so they don't get all misaligned.

And about the 221 vs 332 chord, first tab was in Eb, not E. So they're basically the same thing. When Max first played the song live he played it in Eb and the first tab here transcribes it pretty much perfectly. When the album came out max changed a few things, but the song was in the same key. I assume he recorded it in Eb too, but there's really no way to tell from just listening.

Also, where did you get your Intro section. I'm pretty sure the song starts off with the 332->998 chords
Norgan is a real boy!

User avatar
the futile
Posts: 63
Joined: Sun Aug 10, 2008 7:56 pm

Re: Ahh, Men

Postby the futile » Wed Mar 24, 2010 4:07 pm

yeah i'm confused about the intro too, i think the song is easy enough to play without adding in extra, unnecessary chords that don't give the song anything.
i'm not sure about the "chorus" either, i just hear the same thing from the change onwards?
You've got to go with the motion, oh
Can you feel it in your bones?

cannon64
Posts: 3
Joined: Tue Mar 23, 2010 6:35 pm

Re: Ahh, Men

Postby cannon64 » Sat Mar 27, 2010 12:57 pm

A few of the live shows he play which I've seen on YouTube he plays those chords first and then goes into the 233 for the verses
See, I figured it was in a different tuning but I wasn't sure because when I was tabbing it out I saw him playing 233 but it didn't sound right when I played it on my guitar at Standard tuning unless I moved it back a fret. So basically I tabbed it out for people like me either don't understand how to switch to Eb tuning or just don't want to have to deal with it.

cannon64
Posts: 3
Joined: Tue Mar 23, 2010 6:35 pm

Re: Ahh, Men

Postby cannon64 » Sat Mar 27, 2010 1:00 pm

Ahhh, I didn't notice the chorus was different from the rest
I've been editing this tab for a month and changing things when I find out different parts to it and I guess I accidentally skipped over it.
Sorry bout that.

Johnnyk73
Posts: 1
Joined: Tue Apr 20, 2010 12:42 am

Re: Ahh, Men

Postby Johnnyk73 » Tue Apr 20, 2010 12:53 am

i feel like the last chord in the chorus

Code: Select all

e|
B|
G|11-11-11--11-11-11-11------11-11-11---11-11-11-11-|
D|-9--9--9---9--9--9--9------9--9--9-----8--8--8--8-|
A|-6--6--6---7--7--7--7------9--9--9-----9--9--9--9-|
E|---------------------------7--7--7-----7--7--7--7-|
                                         ^^^^^^^^^   


should be

Code: Select all

e|
B|
G|-11-11-11-11
D|-9--9--8--8
A|-9--9--9--9
E|-7--7--7--7


Return to “Say Anything”

Who is online

Users browsing this forum: No registered users and 1 guest