Cemetary

User avatar
Barry Egan
Posts: 95
Joined: Mon Aug 04, 2008 2:09 pm
Contact:

Cemetary

Postby Barry Egan » Sun Aug 31, 2008 12:50 am

Yep, I'm that crazy.

Code: Select all

He's in Eb(but dropped d) in the video) just didn't want to write all those b's and it will probably be in e for the record
Verse
E|----------------------------------------|
B|----------------------------------------|
G|----------------------------------------|
D|--0--12--7--7---------------------------|
A|--0--9---4--5---------------------------|
D|--0--9---4--5---------------------------|

Your in my body
E|------------------------------------|
B|------------------------------------|
G|-----7----------7-------------------|
D|--7---------0----------------------|
A|--5--9------0---9-------------------|
D|--5--9------0---9-------------------|

"If you want to when we die"
E|-----------------------------------------|
B|-----------------------------------------|
G|-----7--6--------7----6------------------|
D|--7---------7------------7----------------|
A|--5--9--9---5----9----9--7---------------|
D|--5--9--9---5----9----9--7---------------|

Bridge
E|----------------------------------------|
B|----------------------------------------|
G|---------or-----------------------------|
D|--7--4--0---4---------------------------|
A|--5--2--0---0---------------------------|
D|--5--2--0---0---------------------------|

Build-up
E|----------------------------------------|
B|----------------------------------------|
G|--7-6-----------------------------------|
D|--7-7-----------------------------------|
A|--5-5-----------------------------------|
D|--5-5-----------------------------------|


Loathing is next!
Last edited by Barry Egan on Sun Aug 31, 2008 10:57 pm, edited 1 time in total.
Image

itsafake
Posts: 5
Joined: Sun Aug 10, 2008 12:44 pm

Re: Cemetary

Postby itsafake » Sun Aug 31, 2008 5:58 pm

i love you

User avatar
Barry Egan
Posts: 95
Joined: Mon Aug 04, 2008 2:09 pm
Contact:

Re: Cemetary

Postby Barry Egan » Sun Aug 31, 2008 8:57 pm

Let's get married.
Image

hanovergardens
Posts: 9
Joined: Wed Dec 02, 2009 8:31 am
Location: Pottsown, PA
Contact:

Re: Cemetary

Postby hanovergardens » Tue Dec 08, 2009 10:40 am

E|----------------------------------------------|
B|----------------------------------------------|
G|----------------------------------------------|
D|--0-12-----7----7--------------------------|
A|--0--9-----4-----5---------------------------|
D|--0--9--0h4--0h5---------------------------|

im pretty sure he has a few opens in there when he picks up in the end of the verse "nothing seems to turn out right" and on "tell me do you still feel this"
barry pretty much owned this tho good job man and thanks.
i'm the matador or the children's ward

nateorz
Posts: 34
Joined: Wed Oct 21, 2009 12:32 am
Location: San Antonio, TX
Contact:

Re: Cemetary

Postby nateorz » Tue Dec 08, 2009 11:50 pm

I'm pretty sure this is how he plays it.

Code: Select all

"You're in my body..."
E|-----------------------------------|
B|-----------------------------------|
G|-----7---------9-------------------|
D|--7--0------0--0-------------------|
A|--5--x------0--x-------------------|
D|--5--9------0--7-------------------|

"If you want then when we die..."
E|-----------------------------------|
B|-----------------------------------|
G|-----6--------7--6-----------------|
D|--7--0-----7--0--x-----------------|
A|--5--x-----5--x--0-----------------|
D|--5--7-----5--9--7-----------------|
Every time I see your face, I die inside.

User avatar
Barry Egan
Posts: 95
Joined: Mon Aug 04, 2008 2:09 pm
Contact:

Re: Cemetary

Postby Barry Egan » Tue Jan 05, 2010 2:31 am

hanovergardens wrote:barry pretty much owned this tho good job man and thanks.


Thank you sir.
Image


Return to “Say Anything”

Who is online

Users browsing this forum: No registered users and 2 guests