Loathing

User avatar
Barry Egan
Posts: 95
Joined: Mon Aug 04, 2008 2:09 pm
Contact:

Loathing

Postby Barry Egan » Sun Aug 31, 2008 10:30 pm

Code: Select all

standard- capo 7th eb- capo 8th(how it's in the video)
Verses
E|--0-0--0--0-0--------------------------
B|--1-1--1--1-1--------------------------
G|--0-0--0--0-0--------------------------
D|--3-2--2--2-0--------------------------
A|--3-3--0--3-2--------------------------
E|---------------------------------------

"Fade away" Really accent the high e string
E|--0--0-0--------------------------------
B|--1--1-3--------------------------------
G|--0--0-0--------------------------------
D|--2--0-0--------------------------------
A|--0--2-2--------------------------------
E|---------------------------------------

Bridge
E|----------------------------------------
B|--0--0--0--0--0--0--0--0----------------
G|--2--4-----5--5--4-----5----------------
D|--3--5--6--5--5--5--6--5----------------
A|--3--5--6--3--3--5--6--3----------------
E|--1--3--4-----1--3--4--1----------------
Image

is a real boy
Posts: 2
Joined: Fri Aug 08, 2008 4:32 pm

Re: Loathing

Postby is a real boy » Mon Sep 01, 2008 1:04 pm

Thank you!! :D


Return to “Say Anything”

Who is online

Users browsing this forum: No registered users and 1 guest