Chlorine Bath

James
Posts: 13
Joined: Tue Aug 05, 2008 6:29 am

Chlorine Bath

Postby James » Sun Oct 17, 2010 2:12 am

I couldn't be bothered to do up a tab. Hope this works

http://www.youtube.com/watch?v=Ncza6G2K8Jw

User avatar
Revenge!!!
Posts: 5
Joined: Fri Oct 22, 2010 1:30 pm
Location: New Hampshire

Re: Chlorine Bath

Postby Revenge!!! » Fri Oct 29, 2010 10:09 pm

for those who want tab
I tabbed it for ya!
thanks for the vid James. I used it to make this.

CAPO THE 2nd FRET

EDIT: Realized I used fret numbers relative to the nut instead of the capo, and fixed a little error in the verse. So its all fixed and everything should be as it... should be.

Strumming pattern is from this: http://www.youtube.com/watch?v=ernaVQvb ... re=related I tried to get it as close to max's pattern as possible.


Code: Select all


Capo on 2
Standard Tuning

chorus:

      v       v v v^v^     v v v^v^     v v v^v^     v v v^v^
e |---3---|---3-3-3333-----3-3-3333-----2-2-2222-----3-3-3333---|=|
B |---0---|---0-0-0000-----0-0-0000-----3-3-3333-----0-0-0000---|=|
G |---0---|---0-0-0000-----0-0-0000-----2-2-2222-----0-0-0000---|=|
D |---0---|---0-0-0000-----2-2-2222-----0-0-0000-----0-0-0000---|=|
A |---2---|---2-2-2222-----3-3-3333-----0-0-0000-----2-2-2222---|=|
E |---3---|---3-3-3333-----0-0-0000------------------3-3-3333---|=|


when you start to go into the verse, replace the last chord in the chorus with this:


      v v^ v v^
e |---3-33-3-33---|=|
B |---0-00-0-00---|=|
G |---0-00-0-00---|=|
D |---0-00-0-00---|=|
A |---2-22-2-22---|=|
E |---3-33-2-22---|=|


Verse:

      v v v^v^     v v v^v^     v v v^v^     v v v^v^
e |---3-3-3333-----3-3-3333-----3-3-3333-----3-3-3333---|
B |---0-0-0000-----0-0-0000-----0-0-0000-----0-0-0000---|
G |---0-0-0000-----0-0-0000-----0-0-0000-----0-0-0000---|
D |---2-2-2222-----2-2-2222-----0-0-0000-----0-0-0000---|
A |---2-2-2222-----2-2-2222-----2-2-2222-----2-2-2222---|
E |---0-0-0000-----0-0-0000-----3-3-3333-----3-3-3333---|

      v v v^v^     v v v^v^     v v v^v^     v v v^v^
e |---3-3-3333-----3-3-3333-----3-3-3333-----2-2-2222---|=|
B |---0-0-0000-----0-0-0000-----0-0-0000-----3-3-3333---|=|
G |---0-0-0000-----0-0-0000-----0-0-0000-----2-2-2222---|=|
D |---2-2-2222-----2-2-2222-----0-0-0000-----0-0-0000---|=|
A |---3-3-3333-----3-3-3333-----2-2-2222-----0-0-0000---|=|
E |---0-0-0000-----0-0-0000-----3-3-3333----------------|=|


some kinda bridge after the verse:


      v v v v v v v v     v v v v v v v v
e |---3-3-3-3-3-3-3-3-----2-2-2-2-2-2-2-2---|=|
B |---0-0-0-0-0-0-0-0-----3-3-3-3-3-3-3-3---|=|
G |---0-0-0-0-0-0-0-0-----2-2-2-2-2-2-2-2---|=|
D |---2-2-2-2-2-2-2-2-----0-0-0-0-0-0-0-0---|=|
A |---3-3-3-3-3-3-3-3-----0-0-0-0-0-0-0-0---|=|
E |---0-0-0-0-0-0-0-0-----------------------|=|

I am too afraid to like you,
I can't find a word to speak.
But, if i could, i'd talk so good
that you would be with me.


Return to “Max Bemis and the Painful Splits”

Who is online

Users browsing this forum: No registered users and 1 guest