Ms. Martin

User avatar
minusthespazz
Posts: 3
Joined: Fri Oct 22, 2010 7:11 am

Ms. Martin

Postby minusthespazz » Fri Oct 22, 2010 7:35 am

Code: Select all


Intro / Chorus
e|---------|
B|---------|
G|-------6-|
D|-7-6-6-7-|
A|-7-7-7-5-|
E|-5-4-0---|

Lead bit over intro
e|--------------------|
B|-9-9-7-6--9-9-7-6---|
G|------------------7-|
D|--------------------|
A|--------------------|
E|--------------------|

Verse
e|-----------|
B|-----------|
G|-6---6-9-9-|
D|-7-6-7-7-9-|
A|-7-7-5-9-7-|
E|-5-0-------|

"they say that nothing rusts..."
pre-chorus
e|----------|
B|----------|
G|-9-9----9-|
D|-7-7-x3-9-|
A|-9-5----7-|
E|----------|



this song is in standard tuning, and you can figure out the strumming yourself
this is my favorite song on the cd so far. I was listening to it and had a guitar next to me and figured out a few of the songs so I'll get around to posting the ones I figured out when I get the time.
I play bass in these too bands, I'd appreciate if you checked them out!
AAAGH BATS! http://www.myspace.com/perthbats
The Spitfires http://www.myspace.com/thesupermarinespitfires

User avatar
Norgan
Posts: 237
Joined: Wed Aug 26, 2009 10:30 pm
Location: Baltimore, MD
Contact:

Re: Ms. Martin

Postby Norgan » Fri Oct 22, 2010 12:40 pm

Oh it's such a beautiful thing, seeing people putting new tabs on the site!

I'll tel you what I think when I finally get to listen to the songs.
Norgan is a real boy!

DavidEvenExhales
Posts: 3
Joined: Sat Oct 16, 2010 11:59 pm

Re: Ms. Martin

Postby DavidEvenExhales » Fri Oct 22, 2010 8:09 pm

Code: Select all

e|-3-----3----3|
B|-3-----3----3|
G|-------------|
D|-------2----2|
A|-2-----2----3|
E|-3-----------|

^I've only figured out that little intro part so far.
Capo on 2
The picking part I play on the B string (In relation to capo) B|--333-1-0-333-1-0-1|

I'm not great at playing by ear but this is what I can come up with.

User avatar
minusthespazz
Posts: 3
Joined: Fri Oct 22, 2010 7:11 am

Re: Ms. Martin

Postby minusthespazz » Sat Oct 23, 2010 7:43 am

Norgan wrote:Oh it's such a beautiful thing, seeing people putting new tabs on the site!

I'll tel you what I think when I finally get to listen to the songs.


I love this site and learnt alot of songs from it, so I thought I could contribute :)
Will post some more from this cd when I get some time
I play bass in these too bands, I'd appreciate if you checked them out!
AAAGH BATS! http://www.myspace.com/perthbats
The Spitfires http://www.myspace.com/thesupermarinespitfires

User avatar
Norgan
Posts: 237
Joined: Wed Aug 26, 2009 10:30 pm
Location: Baltimore, MD
Contact:

Re: Ms. Martin

Postby Norgan » Sat Oct 23, 2010 4:32 pm

minusthespazz wrote:
Norgan wrote:Oh it's such a beautiful thing, seeing people putting new tabs on the site!

I'll tel you what I think when I finally get to listen to the songs.


I love this site and learnt alot of songs from it, so I thought I could contribute :)
Will post some more from this cd when I get some time


That's the spirit!! I'll be getting the cd in a few weeks, but maybe i'll go listen to the songs" early" on youtube or something to help out with this tabbing.
Norgan is a real boy!

hanovergardens
Posts: 9
Joined: Wed Dec 02, 2009 8:31 am
Location: Pottsown, PA
Contact:

Re: Ms. Martin

Postby hanovergardens » Fri Oct 29, 2010 2:03 pm

Code: Select all



intro
e|-----------------|
B|---------3-------|
G|--7-7------------|
D|--5-5--2-2-------|
A|--7-5--2-3-------|
E|-----------------|


verse
e|-3----------3---3------|
B|-3-----3----3---3---3--|
G|--------------------2--|
D|-------4----2---2---0--|
A|-2-----5----2---3------|
E|-3---------------------|
 

bridge

e|-----------------|
B|-----------------|
G|--7-7--7-7--7----|
D|--5-5--5-5--7----|
A|--7-3--7-3--5----|
E|-----------------|

capo 2

i'm the matador or the children's ward

User avatar
drugshavemymind
Posts: 54
Joined: Sat Oct 09, 2010 11:01 pm
Location: Christchurch, New Zealand
Contact:

Re: Ms. Martin

Postby drugshavemymind » Mon Dec 13, 2010 7:16 pm

DavidEvenExhales wrote:

Code: Select all

e|-3-----3----3|
B|-3-----3----3|
G|-------------|
D|-------2----2|
A|-2-----2----3|
E|-3-----------|

^I've only figured out that little intro part so far.
Capo on 2
The picking part I play on the B string (In relation to capo) B|--333-1-0-333-1-0-1|

I'm not great at playing by ear but this is what I can come up with.



The picking bit during the intro etc is actually:

Capo 2: (0 meaning 2 on the fret)

Code: Select all

e|-------------------|
B|-33-1-0-33-1-0-----|
G|-----------------0-|
D|-------------------|
A|-------------------|
E|-------------------|

you were close though!

Sorry I'm really like perfectiony about little things like that.
______

shot up through the sky by a canon of sin.


Return to “Max Bemis and the Painful Splits”

Who is online

Users browsing this forum: No registered users and 1 guest