Little Star

User avatar
minusthespazz
Posts: 3
Joined: Fri Oct 22, 2010 7:11 am

Little Star

Postby minusthespazz » Fri Oct 22, 2010 8:26 am

Code: Select all


standard tuning

Intro/Verse
e|--------------------------------------------|
B|-1p0---3----1p0---3----1p0---3----1p0---3---|
G|-----0---0------0---0------0---0------0---0-|
D|--------------------------------------------|
A|--------------------------------------------|
E|-0----------0----------3----------3---------|

I had some trouble with the chorus chords but this sounds right to me

e|-3-2-3-2-|
B|-0-3-3-3-|
G|-0-2-0-2-|
D|-2-0-2-0-|
A|-2-0-3-0-|
E|-0-------|

I think he plays
e|-3-|
B|-3-|
G|-0-|
D|-2-|
A|-2-|
E|---|
instead of the D chord before going back into the intro/verse thing

lead bit
e|-----------------------------------------7---7---7---7---|
B|-5-7-8-------7---7---7---7---5-7-8---------8---8---8---8-|
G|-------5-5/7---7---7---7---7-------5-5/7-----------------|
D|---------------------------------------------------------|
A|---------------------------------------------------------|
E|---------------------------------------------------------|



if anyone could figure out the chorus properly that'd be great
also just before the chorus he plucks between the 3rd fret on the B and the open G for a bit before starting the chorus
I play bass in these too bands, I'd appreciate if you checked them out!
AAAGH BATS! http://www.myspace.com/perthbats
The Spitfires http://www.myspace.com/thesupermarinespitfires

Return to “Max Bemis and the Painful Splits”

Who is online

Users browsing this forum: No registered users and 1 guest