Most Beautiful Plague

whenimdeadillrest
Posts: 1
Joined: Thu Oct 09, 2008 1:56 am

Most Beautiful Plague

Postby whenimdeadillrest » Thu Oct 09, 2008 2:33 am

def my favorite off of was a real boy...
cant believe it hadnt been tabbed out on here yet.
well enjoy!



Code: Select all

-Say Anything-
"Most Beautiful Plague"

--Intro and Verse 2x
e|-0---0----0--0---0----0--0---0------0--0---0--0---0--0---0----------------|
B|-0h1-1----0--1---1----0--1---1------0--1---0--1---0--1---0----------------|
G|-2---2----2--2---2----2--2---2------2--2---2--2---2--2---2----------------|
D|-2---2----2--2---2----2--2---2------2--2---2--2---2--2---2----------------|
A|-0---0-------0---0-------0---0---------0------0------0--------------------|
E|--------------------------------------------------------------------------|

e|-2-----------2----------2----------2--------------------------------------|
B|-3-----------3----------3----------3--------------------------------------|
G|-2-----------2----------2----------2---2-3h4-2----------------------------|
D|-0---0-------0---0------0---0------0--------------------------------------|
A|-x------------------------------------------------------------------------|
E|-2------2-----------2----------2------------------------------------------|

e|-0--0--0--0-------------0--0--0--0---------0--0--0--0--0--0--0--0---------|
B|-0--0--0--0-------------0--0--0--0---------1--1--1--0--1--1--1--0---------|
G|-2--2--2--2---2-3h4-2---1--1--1--1--1-2-4--2--2--2--2--2--2--2--2---------|
D|-0--0--0--0-------------2--2--2--2---------2--2--2--2--2--2--2--2---------|
A|-2--2--2--2-------------2--2--2--2---------0--0--0--0--0--0--0--0---------|
E|--------------------------------------------------------------------------|

e|---2---2--------0---0------(1st time)--||-----0--(2nd time)---------------|
B|---3---3--------3---3------------------||-----0---------------------------|
G|---2---2--------1---1------------------||-----1---------------------------|
D|---4---4--------0---0------------------||-----2---------------------------|
A|---2---2--------2---2------------------||-----2---------------------------|
E|---------------------------------------||---------------------------------|

--Pre-chorus 2x
e|--------------------------------------------------------------------------|
B|--------------------------------------------------------------------------|
G|-----0--------0--------0--------0-----------5--------5--------5-5-5-5-5---|
D|--------2-----------------2--------------------2--------2-----2-3-5-3-2---|
A|-----------------0------------------0--3/5--------5--------5--------------|
E|--1--------1--------1--------1--------------------------------------------|

--Chorus 2x
e|-----------0--------------------0--------------------0--------------------|
B|-----------1--------------------1--------------------1--------------------|
G|-----------2--------------------2----------5--5--5---2--5-5-5--5-5-5-5-5-5|
D|-3--3--3---2--3-3-3---3--3--3---2---3-3-3--2--2--2---3--2-2-2--2-2-3-5-3-2|
A|-3--3--3------3-3-3---3--3--3-------3-3-3--0--0--0------0-0-0--0----------|
E|-1--1--1------1-1-1---1--1--1-------1-1-1--5--5--5------5-5-5--5----------|

--Pre-verse
e|---0----------------------------------------------------------------------|
B|---0----------------------------------------------------------------------|
G|---1----------------------------------------------------------------------|
D|---2---------------2-2-2---2-2-2------------------------------------------|
A|---2----------------------------------------------------------------------|
E|-----------------0-------0------------------------------------------------|

Verse again...

Then the chorus...

--Chorus variation
e|--------------------------------------------------------------------------|
B|--------------------------------------------------------------------------|
G|---------------------------5-5-5-5-5-5-5-5-5-5-5-5------------------------|
D|--3-3-3-3-3-3-3-3-3-3-3-3--2-2-2-2-2-2-2-2-3-5-3-2------------------------|
A|--3-3-3-3-3-3-3-3-3-3-3-3--0-0-0-0-0-0-0----------------------------------|
E|--1-1-1-1-1-1-1-1-1-1-1-1--5-5-5-5-5-5-5----------------------------------|

Back to chorus...

--Interlude 4x
e|--------------------------------------------------------------------------|
B|--------------------------------------------------------------------------|
G|------------------------0-------------------------------0-----0-----0-----|
D|--------------------0h2---2-0-----------------------0h2---0h2---0h2-------|
A|----2-3-5-3-2---2-3-----------3-2---2-3-5-3-2---2-3-----------------------|
E|--3-----------1-------------------3-------------1-------------------------|

--Solo 2x
e|--0--------------------------------0--------------------------------------|
B|--0--------------------------------0--------------------------------------|
G|--1--------------------------------1--------------------------------------|
D|--2---------------2-2-2-----2-2-2--2-----------2-2-2---2------------------|
A|--2--------------------------------2--------------------------------------|
E|--0------------0--------0-0--------0---------0-------0--------------------|

e|--0--------0--0-3--0-3--0-3--3/5~\---2------------------------------------|
B|--1--1--3----------------------------3------------------------------------|
G|--2----------------------------------2---2-4-5--5/7--5-4--5-4--5-4~\2-----|
D|--2----------------------------------0------------------------------------|
A|--0----------------------------------x------------------------------------|
E|-------------------------------------2------------------------------------|

e|--0-------------0---------0--0--0--0--0--0--0--0--------------------------|
B|--0-------------0---------1--1--1--0--1--1--1--0--------------------------|
G|--2---2-3h4-2---1---1-2-4p2--2--2--2--2--2--2--2--------------------------|
D|--0-------------2---------2--2--2--2--2--2--2--2--------------------------|
A|--2-------------2---------0--0--0--0--0--0--0--0--------------------------|
E|----------------0---------------------------------------------------------|

--Outro 4x
e|--0---0----x---x----0---0----x---x-------------------------||-(end on)-0--|
B|--0---0----x---x----0---0----x---x-------------------------||----------1--|
G|--2---2----x---x----1---1----x---x-------------------------||----------2--|
D|--0---0----x---x----2---2----x---x-------------------------||----------2--|
A|--2---2----x---x----2---2----x---x-------------------------||----------0--|
E|-----------x---x-------------x---x-------------------------||-------------|
Please take me out of my body...

rowroy
Posts: 1
Joined: Thu Mar 12, 2009 11:22 am

Re: Most Beautiful Plague

Postby rowroy » Thu Mar 12, 2009 12:11 pm

Thanks for taking the time and effort to tab this out. Like you, this is my absolute favorite song from this album. It is simple, thoughtful, original, and has a very cool lead at the end...what could be better?

I have not had time to go through it completely, but it sure looks right to me!

Do you know of any videos of them performing this song?


Return to “...Was A Real Boy”

Who is online

Users browsing this forum: No registered users and 1 guest