Metal Now (Guitar)

Post Reply
User avatar
steveo
Legend
Posts: 89
Joined: Sat Aug 02, 2008 4:46 pm

Metal Now (Guitar)

Post by steveo » Sat Aug 02, 2008 5:25 pm

Code: Select all

Say Anything
"Metal Now"
Tabbed by: Josie
Correction by: Toast23


Intro/Verses 
E||--------------------------|--------------------------| 
B||--------------------------|--------------------------| 
G||--------------------------|--------------------------| 
D||--------------5--5--5--5--|--------------5--7--7--7--| 
A||--5--5--6--7--------------|--5--5--6--7--------------| 
E||--------------------------|--------------------------| 

    
--------------------------|--------------------------| 
--------------------------|--------------------------| 
--------------------------|--------------------------| 
--------------5--5--5--5--|--------------------------| 
--5-5--6--7---------------|--------------------------| 
--------------------------|--8--8--8--8--5--5--5--5--| 

Pre-Verse/Chorus 
--------------------------|--------------------------| 
--------------------------|--------------------------| 
--------------------------|--9--9--9--9--7--7--7--7--| 
--5--5--5--5--9--9--9--9--|--9--9--9--9--7--7--7--7--| 
--5--5--5--5--9--9--9--9--|--7--7--7--7--5--5--5--5--| 
--3--3--3--3--7--7--7--7--|--------------------------| 

  
-----------------0--0--0--|--------------------------| 
-----------------x--x--x--|--------------------------| 
-----------------4--4--4--|--------------------------| 
--5--5--5--5--5-----------|--5--5--5--5--7--7--7--7--| 
--5--5--5--5--5-----------|--5--5--5--5--7--7--7--7--| 
--3--3--3--3--3-----------|--3--3--3--3--5--5--5--5--| 

  
--------------------------|--3----------------| 
--------------------------|--3----------------| 
--9--9--9--9--7--7--7--7--|--0----------------| 
--9--9--9--9--7--7--7--7--|-------------------| 
--7--7--7--7--5--5--5--5--|-------------------| 
--------------------------|-------------------| 

Pre-Solo(LOOOOOOOOOOOOOOOWWWWW!) 
-----------------------|--------------------------|--------------------------| 
-----------------------|--------------------------|--------------------------| 
-----------------------|--------------------------|--------------------------| 
--------------x--x--x--|--6--6--6--6--6--6--6--6--|--6--6--6--6--6--6--6--6--| 
--------------x--x--x--|--5--5--5--5--5--5--5--5--|--5--5--5--5--5--5--5--5--| 
--------------x--x--x--|--3--3--3--3--3--3--3--3--|--3--3--3--3--3--3--3--3--| 

--------------------------|--------------------------| 
--------------------------|--------------------------| 
--------------------------|--------------------------| 
--6--6--6--6--6--6--6--6--|--6--6--6--6--6--6--6--6--| 
--5--5--5--5--5--5--5--5--|--5--5--5--5--5--5--5--5--| 
--3--3--3--3--3--3--3--3--|--3--3--3--3--3--3--3--3--| 

SOLO 
Guitar 2 
---------------------------------------|----------------------------------| 
---------------------------------------|----------------------------------| 
--12-12-12-12-12-12-12-12-12-----------|--12-12-12-12-12-12-12------------| 
--11-11-11-11-11-11-11-11-11-----------|--11-11-11-11-11-11-11------------| 
--10-10-10-10-10-10-10-10-10-----------|--10-10-10-10-10-10-10------------| 
---------------------------------------|----------------------------------| 

Guitar 1 
----------------------------------|--------------------------------| 
----------------------11----------|------11------------------------| 
----------12------12------12------|--12------12--------------------| 
------12------12--------------12--|--------------12--8--10--8------| 
--10------------------------------|----------------------------10--| 
----------------------------------|--------------------------------| 

----------------------------------|-----------------------------------| 
----------------------11----------|-----------------------------------| 
----------12------12------12------|------14--14--14s--18--18--18--18--| 
------12------12--------------12--|-------x---x---x----x---x---x---x--| 
--10------------------------------|--10--12--12--12s--16--16--16--16--| 
----------------------------------|-----------------------------------| 

----------------------------------|----------------------------------| 
----------------------11----------|------11----------11--13--11------| 
----------12------12------12------|--12------12------------------12--| 
------12------12--------------12--|--------------12------------------| 
--10------------------------------|----------------------------------| 
----------------------------------|----------------------------------| 

-----------------------------------|----------------------------------| 
--11h-13-11h-13-11-----------------|----------------------------------| 
--------------------12b---------L--|--14--14--14--18--18--18--18/-----| 
-----------------------------------|---x---x---x---x---x---x---x------| 
-----------------------------------|--12--12--12--16--16--16--16/-----| 
-----------------------------------|----------------------------------| 

Solo 2 
-------------------------|----------------------------| 
-------------------------|----------------------------| 
-------------------------|----------------------------| 
-----5--------5----------|-----5--------5----------L--| 
--------5--------5-------|--------5--------5brb-------| 
--3--------3-------------|--3--------3----------------| 
  
--------------------------|------------------------------|| 
--------------------------|------------------------------|| 
-----3--3--3--6--6--6--6--|--7--7--7--7--x-x-x-x-x-x-x-x-|| 
-----3--3--3--6--6--6--6--|--7--7--7--7--x-x-x-x-x-x-x-x-|| 
-----1--1--1--4--4--4--4--|--5--5--5--5--x-x-x-x-x-x-x-x-|| 
--------------------------|------------------------------|| 

and the synth line is these notes. there's some variation but it's still the same notes. 
------------------------------| 
------------------------------| 
----------------12----11------| 
--------12----------------12--| 
--10--------10----------------| 
------------------------------|
Image
Oh, I'll be around to pick your pretty heart right off the ground when all this
fucking fashion brings you down.
http://www.purevolume.com/stevearuilioistheman

Post Reply