Its a Metaphor Fool!

User avatar
What Say You
Posts: 15
Joined: Thu Aug 07, 2008 10:18 pm
Location: Caro, MI
Contact:

Its a Metaphor Fool!

Postby What Say You » Sun Aug 10, 2008 11:18 am

yeah it is


Code: Select all

intro\verse

  e----------------------------------|
  B----------------------------------|
  G------------------55555555----55--|
  D-5555555-xxxxxxxx-55555555-55-55-5|
  A-5555555-77777777-33333333-55-33-5|
  E-3333333-55555555----------33----3|

                     |--------------|
                     |--------------|replace the last 13powerchords with
                     |-55-------55--|this the 2nd time trough.
                     |-55-66-55-55-5|
                     |-33-66-55-33-5|
                     |----44-33----3|

  chorus

  e------------------|
  B------------------|
  G-----55-------55--|
  D-5-x-55-66-55-55-5|
  A-5-7-33-66-55-33-5|
  E-3-5----44-33----3|

   the we told your mother part

  e----|
  B----|
  G----|
  D-5-x|
  A-5-7|
  E-3-5|
      SOLO
  e------------------------------------------------------------------|
  B------------------------------------------------------------------|
  G-16-16-16-14-------------------14-16-16-16-14---------------16-16B|
  D------------17--14-17-14--14-17--------------17--14-17-14-17------|
  A--------------17--------17---------------------17-----------------|
  E------------------------------------------------------------------|

       OUTRO
  e--------------------|
  B--------------------|
  G-------55-------55--|
  D-55-xx-55-66-55-55-5|
  A-55-77-33-66-55-33-5|
  E-33-55----44-33----3|
Image

"Milk Was a Bad Choice"

User avatar
Barry Egan
Posts: 95
Joined: Mon Aug 04, 2008 2:09 pm
Contact:

Re: Its a Metaphor Fool!

Postby Barry Egan » Sun Aug 10, 2008 4:08 pm

I play it a little differently in parts. I'll post my version soon.
Image

User avatar
Barry Egan
Posts: 95
Joined: Mon Aug 04, 2008 2:09 pm
Contact:

Re: Its a Metaphor Fool!

Postby Barry Egan » Thu Aug 21, 2008 12:26 am

Code: Select all

Intro(rhythm of course not written out)
E|----------------------------------
B|----------------------------------
G|--4--4--4--4--4--4--4--4----------
D|--5--5--5--5--5--5--5--5----------
A|--5-----3--5--3--5--3--5----------
E|--3--5-----3-----3-----3----------

"Sixteen names"
E|---------------------------------------------------------------------------
B|---------------------------------------------------------------------------
G|--------4-4-4-4-4--------4-4-4-4-4--------4-4-4-4-4---------5-----5-5-5----
D|--------5-5-5-5-5--------5-5-5-5-5--------5-5-5-5-5----5-5--5--5--5-5-5--5-
A|------------------------------------3-3-3--------------5-5--3--5--3-3-3--5-
E|--3-3-3------------5-5-5-------------------------------3-3-----3---------3-

"Got your scars"
E|-----------------------------------------------------------------
B|-----------------------------------------------------------------
G|--------4-4-4-4-4--------4-4-4-4-4--4-4-----------5----5-5-5-----
D|--------5-5-5-5-5--------5-5-5-5-5--5-5--6-6--5-5-5-5--5-5-5--5--
A|------------------------------------3-3--6-6--5-5-3-5--3-3-3--5--
E|--3-3-3------------5-5-5-----------------4-4--3-3---3---------3--

Chorus
E|---------------------------------------------------------------------------
B|---------------------------------------------------------------------------
G|------------------------------------4-4-4-4----------------5-----5-5-5-----
D|--5-5-5-5-5-5-5-5--7-7-7-7-7-7-7-7--5-5-5-5--6-6-6-6--5-5--5--5--5-5-5--5--
A|--5-5-5-5-5-5-5-5--7-7-7-7-7-7-7-7--3-3-3-3--6-6-6-6--5-5--3--5--3-3-3--5--
E|--3-3-3-3-3-3-3-3--5-5-5-5-5-5-5-5-----------4-4-4-4--3-3-----3---------3--

"Woah, woah...love like no other"    repeat
E|--------------------------------------------------
B|--------------------------------------------------
G|--5--4-4--5--4-4--5--4-4--------------------------
D|--5--5-5--5--5-5--5--5-5--6-6-6--5-5-5------------
A|--5--5-5----------3--3-3--6-6-6--5-5-5------------
E|--3--3-3--5--5-5----------4-4-4--3-3-3------------

Basically everything repeats after that in some form
Image


Return to “...Was A Real Boy”

Who is online

Users browsing this forum: No registered users and 2 guests