Page 1 of 1

People Like You Are Why People Like Me Exist

Posted: Mon Oct 06, 2008 12:21 pm
by TallMeanMan
Whos got it? Come on' Post it please....

Re: People Like You Are Why People Like Me Exist

Posted: Thu Oct 14, 2010 6:20 pm
by Noelisarealboy
you asked for it..... so i got it!

If you know the song well enough you'll get the rhythm!
Tuning Drop-D

intro
e----------------------------------
b----------------------------------
g--16-14-16-11-19-14-16-19------
d--X--X--X--X--X--X--X--X--X----- X2
a--14-12-14-9--17-12-14-17------
d----------------------------------

Verse
e------7---------------------
b-----7----------------------
g----7----999xx999--------
d---9-----777xx777-------- X2
a--9------777xx777--------
d-9-------777xx777--------
^-Play around at picking this

Chorus (seriously fun to play!)
e-------------------------------------------
b-------------------------------------------
g-7-6-x-x-7-6-7-9-9-9999xx999--------
d-5-5-9-7-9-9-9-9-0-7777xx777-------- X2
a-5-5-5-5-9-9-9-9-0-7777xx777--------
d-5-5-5-5-9-9-9-9-0-7777xx777--------

intro again
e-------------------------------------
b-------------------------------------
g--16-14-16-11-19-14-16-19------
d--X--X--X--X--X--X--X--X--X------ X2
a--14-12-14-9--17-12-14-17------
d-------------------------------------

2nd Verse
e-----------------------------------------------------------
b--------------------------------------------------------
g-19-18------------------------------------99xx99xx99---------
d-x--x--------------------------------------77xx77xx77-----------
a-17-16--------------------------797------77xx77xx77---
d--------------999999997999999979-97-77xx77xx77----
^---^Hooooold

Chorus 2
e-------------------------------------------
b-------------------------------------------
g-7-6-x-x-7-6-7-9-9-9999xx999--------
d-5-5-9-7-9-9-9-9-0-7777xx777-------- X2
a-5-5-5-5-9-9-9-9-0-7777xx777--------
d-5-5-5-5-9-9-9-9-0-7777xx777--------

Bridge- right i've no idea what the first part is! loada effects but i got the second bit!
e-------------------------------
b------------------------------
g-7777666677779999-------
d-7777777777777777------- Then more of effectsy stuff and that again!
a-5555555555555555-------
d------------------------------

Bridge part 2! EPIC RIFF TIME!
e-----------------------------------
b-----------------------------------
g-----------------------------------
d-00300312121211--------------- x6
a-00300312121211---------------
d-00300312121211---------------
^ Twelves and elevens!

Back to the intro!
e------------------------------------------------------
b------------------------------------------------------
g--16-14-16-11-19-14-16-14-16-14-16-14-16----
d--X--X--X--X--X--X--X--X--X--X---X--X--X--X------
a--14-12-14-9--17-12-14-12-14-12-14-12-14----
d------------------------------------------------------

aaaaaaaaand chorus!
e-------------------------------------------
b-------------------------------------------
g-7-6-x-x-7-6-7-9-9-9999xx999--------
d-5-5-9-7-9-9-9-9-0-7777xx777-------- X2
a-5-5-5-5-9-9-9-9-0-7777xx777--------
d-5-5-5-5-9-9-9-9-0-7777xx777--------

And the last part with just guitar is the same as the chorus!

Anyway!
praise the good name that is Max Bemis! (:

Re: People Like You Are Why People Like Me Exist

Posted: Thu Oct 14, 2010 9:10 pm
by tgreg
Thanks for this mannn! "Epic riff" indeed :)

Re: People Like You Are Why People Like Me Exist

Posted: Fri Oct 15, 2010 2:01 pm
by Norgan
Think you can format that with a fixedwidth font and then put it in some [code] blocks? I was going to just put [code] blocks in for you, but it messed up the alignment.

Re: People Like You Are Why People Like Me Exist

Posted: Fri Oct 15, 2010 4:14 pm
by Scott
Norgan wrote:Think you can format that with a fixedwidth font and then put it in some [code] blocks? I was going to just put [code] blocks in for you, but it messed up the alignment.


same thing happened to me.

Re: People Like You Are Why People Like Me Exist

Posted: Fri Oct 15, 2010 5:11 pm
by Noelisarealboy
i think thats the code thing? :P

Re: People Like You Are Why People Like Me Exist

Posted: Wed Oct 27, 2010 4:22 pm
by Jordandino_man
I think @Noelisarealboy is a fagel :) but even I, with my mediocre guitar skills could play with these tabbs. Thank you! :P

Re: People Like You Are Why People Like Me Exist

Posted: Wed Oct 27, 2010 5:43 pm
by Norgan
Noelisarealboy wrote:i think thats the code thing? :P

Not quite. What I mean is to surround your entire tab with code blocks to ensure proper alignment. The problem is you already compensated for not using the code blocks so using them now throws off the alignment like this:

Code: Select all

e-----------------------------------------------------------
b--------------------------------------------------------
g-19-18------------------------------------99xx99xx99---------
d-x--x--------------------------------------77xx77xx77-----------
a-17-16--------------------------797------77xx77xx77---
d--------------999999997999999979-97-77xx77xx77----


Adjusting for not using the code blocks works, but only as long as the tabs are using the same exact font as you adjusted for. Using the [code] blocks forces it to be displayed with a fixed-width font, so alignment won't be an issue.