An Insult To The Dead

User avatar
Barry Egan
Posts: 95
Joined: Mon Aug 04, 2008 2:09 pm
Contact:

An Insult To The Dead

Postby Barry Egan » Thu Nov 20, 2008 12:51 pm

Here's a tab that just got put up on Ultimate guitar. Looks pretty good, although I play it differently...See how you like it.

Code: Select all

Verse Part I
e|-7\-----7(10)-10---------Just play with these--------------------------------|
B|-8\-/8--8-----8----------chords for part 1-----------------------------------|
G|-9\-/9--9-----9--------------------------------------------------------------|
D|----/10-------10-------------------------------------------------------------|
A|-----------------------------------------------------------------------------|
E|-----------------------------------------------------------------------------|

Verse part II : "Circle-shaped like every fucked mistake I made"
e|---------------------------------------------------------------------------|
B|---8-----8-----8----7-----7-----7------------------------------------------|
G|----9-----9----9-----7-----7----7------------------------------------------|
D|---------------------------------------------------------------------------|
A|-7-----7-----7-----5----5-----5--------------------------------------------|
E|---------------------------------------------------------------------------|

Repeat Verse

Prechorus: "(Laid) a curse on her, a curse on her..."
e|---------------------------------------------------------------------------|(Repeat)
B|--5----5----5--5----5----5--8----8----8--7-----7-----7---------------------|
G|----5----5--5----5----5--5----9----9--9----7-----7---7---------------------|
D|---------------------------------------------------------------------------|
A|-3----3----3--3----3----3--7----7----7--5----5-----5-----------------------|
E|---------------------------------------------------------------------------|

"Oh God, forgive me Moses, Jesus, Allah"
e|-3~-----2-2-3--------------------------------------------------------------|
B|-3~-----3-3-3--------------------------------------------------------------|
G|-0~-----2-2-2--------------------------------------------------------------|
D|-2~-----0-0-0--------------------------------------------------------------|
A|-3~------------------------------------------------------------------------|
E|---------------------------------------------------------------------------|

Chorus- You just strum these chords, listen for the rhythm
e|-3----0----3---3-------------------------------------------------------------|
B|-3----3----3---3-------------------------------------------------------------|
G|-0----0----0---0-------------------------------------------------------------|
D|-0----4----2---2-------------------------------------------------------------|
A|-2----5----2---3-------------------------------------------------------------|
E|-3----x----0---x-------------------------------------------------------------|

Repeat Verse, Prechorus , Chorus

For the bridge, just experiment with the Prechorus chords, they are the same.
Just listen to the song, and you'll get it :)
Image

EpicPale
Posts: 2
Joined: Fri Nov 21, 2008 12:38 pm

Re: An Insult To The Dead

Postby EpicPale » Fri Nov 21, 2008 12:47 pm

I actually made that tab :) here's a link to show how I play it, would just embed the video, but I have no clue how to do that :(

http://www.youtube.com/watch?v=L9ncK6Dauyg


User avatar
Scott
Site Admin
Posts: 540
Joined: Sat Aug 02, 2008 11:33 am
Location: Maryland
Contact:

Re: An Insult To The Dead

Postby Scott » Sun Nov 23, 2008 3:06 pm

EpicPale wrote:I actually made that tab :) here's a link to show how I play it, would just embed the video, but I have no clue how to do that :(



i gotcha bro :)
Self-inflicted or not, I find myself on the farthest star, foreign to everything like I woke up with a German tongue.

EpicPale
Posts: 2
Joined: Fri Nov 21, 2008 12:38 pm

Re: An Insult To The Dead

Postby EpicPale » Sun Nov 23, 2008 5:05 pm

Awesome, thank you :)


Return to “In Defense of the Genre”

Who is online

Users browsing this forum: No registered users and 1 guest