Goodbye Young Tutor, You've Now Outgrown Me

User avatar
steveo
Moderator
Posts: 89
Joined: Sat Aug 02, 2008 4:46 pm

Goodbye Young Tutor, You've Now Outgrown Me

Postby steveo » Sun Aug 03, 2008 1:18 am

Code: Select all

Say Anything
"Goodbye Young Tutor, You've Now Outgrown Me"
Tabbed by: "Me"
Corrections by: Scott Rome

Tuning: Standard


INTRO
e|--------------------0--------------------------------------------0--------|
B|-1------------3---------1----1--------3--3--3p1-----1-------3---------1---|
G|------0-------------------------0---------------------0-------------------|
D|--------2-----------------------------------------------------------------|
A|-3----------3-----3---3---0---------0-0--0--0---3--------3-----3---3---0--|
E|--------------------------------------------------------------------------|
                                      "Black days..."
e|-------------------------------------0------------------------------------|
B|-1-------3--3--3p1-----1-------3---------1-----1-------3--3--3p1-----1----|
G|---0---------------------0-----------------------0---------------------0--|
D|--------------------------------------------------------------------------|
A|-------0-0--0--0---3---------3-----3---3---0---------0-0--0--0---3--------|
E|--------------------------------------------------------------------------|

e|----------0--------------------------------------------------------------|
B|---3----------1----1-------3--3--3p1--------------------1--1--1--1--1--1-|
G|---------------------0----------------0--0--0--0--0--0-------------------|
D|-------------------------------------------------------------------------|
A|-3-----3----3---0--------0-0--0--0----3--3--3--2--2--2--1--1--1--1--1--1-|
E|-------------------------------------------------------------------------|

e|----------------------1----------------------------------------------0-|
B|----------------------1----1--------1-----1--------1--------1----------|
G|-----2-------2-----2--1--------1-------1-----0--------0--------0-------|
D|-------3--------3-----3----------3--------------2--------0--------2----|
A|-----------3----------3-------------------3--------2--------0----------|
E|-1--------------------1--1-------------------------------------------3-|

e|-------------------------------------------------------------------------|
B|--------------------------------------0------1-----------3---3/5---0-----|
G|-0-----------5------5-----5---2------------------0-----------------------|
D|----0------0-2----0-2---0-2------------------------2---------------------|
A|-------5-------------------------------------3---------3-3---------------|
E|------------------------------3-------3----------------------------3-----|
                                  "Your breath..."
e|---------------------------------0------------------------------------|
B|---------------1-----------3---------1-----1-------3--3--3p1-----1----|
G|----0----0---0-----0-------------------------0---------------------0--|
D|---------------------2------------------------------------------------|
A|------0----2---3---------3-----3---3---0---------0-0--0--0---3--------|
E|-3--------------------------------------------------------------------|

e|---------0---------------------------------------------------------------|
B|---3---------1-----1-------3--3--3p1--------------------1--1--1--1--1--1-|
G|---------------------0----------------0--0--0--0--0--0-------------------|
D|-------------------------------------------------------------------------|
A|-3-----3---3---0---------0-0--0--0----3--3--3--2--2--2--1--1--1--1--1--1-|
E|-------------------------------------------------------------------------|

e|----------------------1-----------------------------------------------0-|
B|----------------------1-----1--------1-----1--------1--------1----------|
G|-----2-------2-----2--1---------1-------1-----0--------0--------0-------|
D|-------3--------3-----3-----------3--------------2--------0--------2----|
A|-----------3----------3--------------------3--------2--------0----------|
E|-1--------------------1---1-------------------------------------------3-|

e|---------------------------------------------|
B|-------------------------------------0-------|
G|-0-----------5------5-----5--2---------------|
D|----0------0-2----0-2---0-2------------------|
A|-------5-------------------------------------|
E|-----------------------------3-------3-------|

e|------------------------------------------------|
B|-------1--1--------------------1--0-------------|
G|-------0--0--------0-----------0--0--------0----|
D|-2--2--------2--2--2--2--2--2--------2--2--2--2-|
A|-3--3--------3--3-----3--3--3--------3--3-----3-|
E|-1--1--------1--1--------1--1--------1--1-------|

e|------------------------------------------------|
B|-------1--0--------------------1--0-------------|
G|-------0--0--------0-----------0--0--------0----|
D|-2--2--------2--2--2--2--2--2--------2--2--2--2-|
A|-0--0--------0--0--------0--0--------0--0-------|
E|------------------------------------------------| Repeat as needed until:
   "Max, oh..."
e|------------------------------------------------|              e|---0---|
B|-------0------Repeat X4-------3------Repeat X4--| Repeat Twice B|---3---|
G|-----------0----------------------0-------------| End on:      G|---0---|
D|------------------------------------------------|              D|---2---|
A|--0--0-------------------3--3-------------------|              A|---3---|
E|------------------------------------------------|              E|---x---|

e|------------------------------------------------|
B|-------1--1--------------------1--0-------------|
G|-------0--0--------0-----------0--0--------0----|
D|-2--2--------2--2--2--2--2--2--------2--2--2--2-|
A|-3--3--------3--3-----3--3--3--------3--3-----3-|
E|-1--1--------1--1--------1--1--------1--1-------|

e|------------------------------------------------|
B|-------1--0--------------------1--0-------------|
G|-------0--0--------0-----------0--0--------0----|
D|-2--2--------2--2--2--2--2--2--------2--2--2--2-|
A|-0--0--------0--0--------0--0--------0--0-------|
E|------------------------------------------------| Repeat twice, then:

e|--------------------0---------------------------------------------0-------|
B|-1------------3---------1-----1-------3--3--3p1-----1-------3---------1---|
G|------0-------------------------0---------------------0-------------------|
D|--------2-----------------------------------------------------------------|
A|-3----------3-----3---3---0---------0-0--0--0---3---------3-----3---3---0-|
E|--------------------------------------------------------------------------|

e|-------------------------------------0------------------------------------|
B|-1-------3--3--3p1-----1-------3---------1----1--------3--3--3p1-----1----|
G|---0---------------------0-----------------------0---------------------0--|
D|--------------------------------------------------------------------------|
A|-------0-0--0--0---3---------3-----3---3---0---------0-0--0--0---3--------|
E|--------------------------------------------------------------------------|

e|----------0----------------------------0--|
B|---3----------1-----1-------3--3--3p1--1--|
G|----------------------0----------------0--|
D|---------------------------------------2--|
A|-3-----3----3---0---------0-0--0--0----3--|
E|---------------------------------------x--|
Image
Oh, I'll be around to pick your pretty heart right off the ground when all this
fucking fashion brings you down.
http://www.purevolume.com/stevearuilioistheman

User avatar
What Say You
Posts: 15
Joined: Thu Aug 07, 2008 10:18 pm
Location: Caro, MI
Contact:

Re: Goodbye Young Tutor, You've Now Outgrown Me

Postby What Say You » Sun Aug 10, 2008 9:31 am

Image

"Milk Was a Bad Choice"

User avatar
steveo
Moderator
Posts: 89
Joined: Sat Aug 02, 2008 4:46 pm

Re: Goodbye Young Tutor, You've Now Outgrown Me

Postby steveo » Sun Aug 10, 2008 1:55 pm

I like your slow songs better.
Image
Oh, I'll be around to pick your pretty heart right off the ground when all this
fucking fashion brings you down.
http://www.purevolume.com/stevearuilioistheman

User avatar
steveo
Moderator
Posts: 89
Joined: Sat Aug 02, 2008 4:46 pm

Re: Goodbye Young Tutor, You've Now Outgrown Me

Postby steveo » Mon Aug 11, 2008 12:34 am

Josie, can you post your solo?
Image
Oh, I'll be around to pick your pretty heart right off the ground when all this
fucking fashion brings you down.
http://www.purevolume.com/stevearuilioistheman

User avatar
the futile
Posts: 63
Joined: Sun Aug 10, 2008 7:56 pm

Re: Goodbye Young Tutor, You've Now Outgrown Me

Postby the futile » Mon Aug 11, 2008 12:39 am

steveo wrote:Josie, can you post your solo?


i'm not josie
this is not my solo;

Code: Select all

pushing me away...
e|-------------------------------------------|
B|-------------------------------------------|
G|-----5h7-7/9----------5h7-7/9--------------|
D|-5h7----------5h7-------------5h7------5h7-|
A|------------------5h7---------------5h7----|
E|-------------------------------------------|

                          ...the night that we met
e|-------------------7-----7-----8-----10----------|
B|----------8*/3-3-----8-----8-----8------8--------|
G|-5h7-7/9---------------9-----9-----9------9\-----|
D|-------------------------------------------------|
A|-------------------------------------------------|
E|-------------------------------------------------|
*let the 8 ring out before sliding down to the 3

e|--------------------------------------------|
B|--------------------------------------------|
G|--------------------------------------------|
D|-------------5/7/12\7-----------------------|
A|-10/12\5/7-------------10/12\5/7------------|
E|-----------------------------------15\3-3---|
You've got to go with the motion, oh
Can you feel it in your bones?

User avatar
steveo
Moderator
Posts: 89
Joined: Sat Aug 02, 2008 4:46 pm

Re: Goodbye Young Tutor, You've Now Outgrown Me

Postby steveo » Mon Aug 11, 2008 12:43 am

the futile wrote:
steveo wrote:Josie, can you post your solo?


i'm not josie
this is not my solo;

Code: Select all

pushing me away...
e|-------------------------------------------|
B|-------------------------------------------|
G|-----5h7-7/9----------5h7-7/9--------------|
D|-5h7----------5h7-------------5h7------5h7-|
A|------------------5h7---------------5h7----|
E|-------------------------------------------|

                          ...the night that we met
e|-------------------7-----7-----8-----10----------|
B|----------8*/3-3-----8-----8-----8------8--------|
G|-5h7-7/9---------------9-----9-----9------9\-----|
D|-------------------------------------------------|
A|-------------------------------------------------|
E|-------------------------------------------------|
*let the 8 ring out before sliding down to the 3

e|--------------------------------------------|
B|--------------------------------------------|
G|--------------------------------------------|
D|-------------5/7/12\7-----------------------|
A|-10/12\5/7-------------10/12\5/7------------|
E|-----------------------------------15\3-3---|


I know your not Josie ahah, Josie showed me this tab months ago this solo is correct so ill squeeze it in where it should be
thanks for this tab. Whats your real name?
Image
Oh, I'll be around to pick your pretty heart right off the ground when all this
fucking fashion brings you down.
http://www.purevolume.com/stevearuilioistheman

User avatar
the futile
Posts: 63
Joined: Sun Aug 10, 2008 7:56 pm

Re: Goodbye Young Tutor, You've Now Outgrown Me

Postby the futile » Mon Aug 11, 2008 12:44 am

steveo wrote:I know your not Josie ahah, Josie showed me this tab months ago this solo is correct so ill squeeze it in where it should be
thanks for this tab. Whats your real name?


it's graham :)
You've got to go with the motion, oh
Can you feel it in your bones?


Return to “In Defense of the Genre”

Who is online

Users browsing this forum: No registered users and 1 guest