Plea

User avatar
steveo
Moderator
Posts: 89
Joined: Sat Aug 02, 2008 4:46 pm

Plea

Postby steveo » Sun Aug 03, 2008 1:19 am

Code: Select all

Say Anything
"Plea"
Tabbed by: Justin Weleski - jmw59@pitt.edu
Corrections by: Scott Rome

Tuning: Standard


"Please run.."
Intro/Verse

e|---------------------------------------------------------------------------|
B|---0------3-3-3---1p0--------3---------------------------------------------|
G|-----0----0-0---0------------0---------------------------------------------|
D|----------x------------------0---------------------------------------------|
A|-0--------3------------------2---------------------------------------------|
E|-----------------------------3-(strum)----0-3-0-3-0-3-0--------------------|

"I don't know what to do..."
Pre-Chorus (strum)

e|---------------------------------------------------------------------------|
B|---------------------------------------------------------------------------|
G|---------------------------------------------------------------------------|
D|-3--2--5----3--2--7-5-7-10-----3-2--5--------------------------------------|
A|-3--2--5----3--2--7-5-7-10-----3-2--5--------------------------------------|
E|-1--0--3----1--0--5-3-5-8------1-0--3--------------------------------------|

Pre-Chorus [part two]

e|--------------0-------------------------------------------------------------|
B|--------------0-------------------------------------------------------------|
G|-------1---1--1-------------------------------------------------------------|
D|-----0---0----0-------------------------------------------------------------|
A|---2------------------------------------------------------------------------|
E|-0--------------------------------------------------------------------------|

"if you could go.."

Chorus [part one]

e|-0----------0-------------3-----3-------------------------------------------|
B|-1----------3---------3h5---3h5---3-1p0-------------------------------------|
G|-0----------0---------------------------------------------------------------|
D|-2----------x---------------------------------------------------------------|
A|-0-(strum)--3-(strum)-------------------------------------------------------|
E|----------------------------------------------------------------------------|

Chorus [part two]

e|-0----------0--------------3---3---3---3-------------------------------------|
B|-1----------3----------3h5---3---1---0---------------------------------------|
G|-0----------0----------------------------------------------------------------|
D|-2----------x----------------------------------------------------------------|
A|-0-(strum)--3-(strum)--------------------------------------------------------|
E|-----------------------------------------------------------------------------|

At this point, you play Chorus [part one] again, and then;

e|-3-----------------------0---------------------------------------------------|
B|-3-----------------------0---------------------------------------------------|
G|-0-----------------1---1-1---------------------------------------------------|
D|-0---------------0---0---0---------------------------------------------------|
A|-2-------------2-------------------------------------------------------------|
E|-3-(strum)---0---------------------------------------------------------------|

"Please run"
Second Verse
                          (you can end the strum with this chord)
e|----------------------------------------------------------------------------|
B|----------------------------------------------------------------------------|
G|------------7---------------------------------------------------------------|
D|--7---------5---------------7-----------------------------------------------|
A|--7-(strum)-3-(strum)-------5-----------------------------------------------|
E|--5-------------------------3-----------------------------------------------|

"I don't know what to do"
PreChorus

e|---------------------------------------------------------------------------|
B|---------------------------------------------------------------------------|
G|---------------------------------------------------------------------------|
D|-3--2--5----3--2--7-5-7-10-----3-2--5--------------------------------------|
A|-3--2--5----3--2--7-5-7-10-----3-2--5--------------------------------------|
E|-1--0--3----1--0--5-3-5-8------1-0--3--------------------------------------|

e|----------------------------------------------------------------------------|
B|-------------5-0-3-1--------------------------------------------------------|
G|-------1---1----------------------------------------------------------------|
D|-----0---0------------------------------------------------------------------|
A|---2------------------------------------------------------------------------|
E|-0--------------------------------------------------------------------------|

"If you should go..."

Chorus [part one]

e|--------------------------3-----3-------------------------------------------|
B|----------------------3h5---3h5---3-1p0-------------------------------------|
G|-5-4---------7--------------------------------------------------------------|
D|-5-5---------5--------------------------------------------------------------|
A|----(strum)--3-(strum)------------------------------------------------------|
E|-5-5------------------------------------------------------------------------|

Chorus [part two]

e|-------------------------3----3---3---3-------------------------------------|
B|---------------------3h5---3---1---0----------------------------------------|
G|-5-4--------7---------------------------------------------------------------|
D|-5-5--------5---------------------------------------------------------------|
A|----(strum)-3-(strum)-------------------------------------------------------|
E|-5-5------------------------------------------------------------------------|

At this point, you play Chorus [part one] again, and then;

e|-------------------------0---------------------------------------------------|
B|-------------------------0---------------------------------------------------|
G|-------------------1---1-1---------------------------------------------------|
D|-7---------------0---0---0---------------------------------------------------|
A|-5-------------2-------------------------------------------------------------|
E|-3-(strum)---0---------------------------------------------------------------|

Enter Kenny
Bridge
                         (listen for the correct rhythm to play this chord)
e|-0----------0-0--------------------------------------------------------------|
B|-0----------1-0--------5-----------------------------------------------------|
G|-2----------2-2--------5-----------------------------------------------------|
D|-2----------2-2--------------------------------------------------------------|
A|-0-(strum)--0-0--------5-----------------------------------------------------|
E|-----------------------------------------------------------------------------|

"I can't explain how i..."
Bridge [part two]  (repeat this till next part)

e|---0-----------------------------------------------------------------------|
B|-----3---1-0---0-----------------------------------------------------------|
G|-2-----2-----2-------------------------------------------------------------|
D|---------------------------------------------------------------------------|
A|---------------------------------------------------------------------------|
E|---------------------------------------------------------------------------|

Bridge [part two] (guitar 2 overtop of above riff the last two times)

e|-----3-------------5h7-5-3-5-------3---------------------------------------|
B|---1------1-0---0------------1p0------5-5-5-5-5-5-5-5-7-7-7-7-7-7-7-7-8----|
G|-2-----2------2------------------2-----------------------------------------|
D|---------------------------------------------------------------------------|
A|---------------------------------------------------------------------------|
E|---------------------------------------------------------------------------|


"maybe someday we..."
Ending (strum)
                           ending  (end on this chord)
e|---------------------------------------------------------------------------|
B|---------------------------------------------------------------------------|
G|-5---4---7---------------5-9-7--5------------------------------------------|
D|-5---2---7---------------5-9-7--5------------------------------------------|
A|-3---2---5---------------3-7-5--3------------------------------------------|
E|-3---0---5---------------3-7-5--3------------------------------------------|



| /  slide up
| \  slide down
| h  hammer-on
| p  pull-off
| ~  vibrato
| +  harmonic
| x  Mute note
===============================================================================
Image
Oh, I'll be around to pick your pretty heart right off the ground when all this
fucking fashion brings you down.
http://www.purevolume.com/stevearuilioistheman

Return to “In Defense of the Genre”

Who is online

Users browsing this forum: No registered users and 1 guest