The Church Channel

Post Reply
User avatar
Scott
Legend
Posts: 540
Joined: Sat Aug 02, 2008 11:33 am
Location: Maryland
Contact:

The Church Channel

Post by Scott » Sun Aug 03, 2008 11:06 pm

Code: Select all


Say Anything
"The Church Channel" 

      E  E  E  E  H           E  E  E  E  H           E  E  E  E  H          
E||------------1--L--------|-----------0--L--------|-----------------------| 
B||---------1--------------|--------1--------------|-----0--1--3--L--------| 
G||*-----2-----------------|-----2-----------------|-----------------------| 
D||*--0--------------------|-----------------------|-----------------------| 
A||------------------------|--0--------------------|-----------------------| 
E||------------------------|-----------------------|--3--------------------| 


  E  E  E  Q    Q    E       Q    E  E  E  E  E  E     E  E  E  E  E  E  E  E    
-------------------------||--5----5--5--5--5--5--5--|--5--5--5--5--5--5--5--5--| 
--------0--1-------------||--6----6--6--6--6--6--6--|--5--5--5--5--5--5--5--5--| 
-----0----------2-------*||--5----5--5--5--5--5--5--|--5--5--5--5--5--5--5--5--| 
------------------------*||--7----7--7--7--7--7--7--|--5--5--5--5--5--5--5--5--| 
---------------------2---||-------------------------|--------------------------| 
--3----------------------||-------------------------|--------------------------| 


  E  E  E  E  E  E  E  E     E  E  E  E    Q    Q      
--------------------------|--------------/10----------| 
-----8--------8--------8--|--------8------------8~----| 
--------7--------7--------|--7--------7---------------| 
-----------5--------5-----|-----5---------------------| 
--------------------------|---------------------------| 
--7-----------------------|---------------------------| 


  Q    E  E  E  E  E  E     E  E  E  E  E  E  E  E    
--5----5--5--5--5--5--5--|--5--5--5--5--5--5--5--5--| 
--6----6--6--6--6--6--6--|--5--5--5--5--5--5--5--5--| 
--5----5--5--5--5--5--5--|--5--5--5--5--5--5--5--5--| 
--7----7--7--7--7--7--7--|--5--5--5--5--5--5--5--5--| 
-------------------------|--------------------------| 
-------------------------|--------------------------| 


  E  E  E  E  Q       E  E     E  E  E  E    Q    Q      
--3-----------3pbr----------|--3-----------/10----------| 
--3--3--1--0--3-------3--1--|--3--3--1--0---------8~----| 
--0--0--0--0--0-------0--0--|--0--0--0--0---------------| 
--0--0--0--0--0-------0--0--|--0--0--0--0---------------| 
----------------------------|---------------------------| 
----------------------------|---------------------------| 


                   PM PM                          PM PM        
                         |--3-|                   |----3---|    
    Q    Q    Q    S  S  S  S S    Q    Q    Q    S  S  E  E    
|-------------------------------|-----------------------------| 
|---6----6----6-----------------|--6----6----6----------------| 
|*--5----5----5-----------------|--5----5----5----------------| 
|*--7----7----7-----------------|--7----7----7----------3--2--| 
|---5----5----5---------------3-|--5----5----5----5--5--------| 
|------------------3--3--3h-5---|-----------------------------| 


                 PM PM                                        
                       |--3-|                                  
  Q    Q    Q    S  S  S  S S    Q    Q    S S S S S S S S    
------------------------------|-----------------------------|| 
--5----5----5-----------------|--5----5---------------------|| 
--5----5----5-----------------|--5----5--------------------*|| 
--5----5----5-----------------|--5----5----3-3-3-3-2-2-2-2-*|| 
--3----3----3---------------3-|--3----3---------------------|| 
-----------------3--3--3h-5---|-----------------------------|| 


  E   E  Q    Q    Q       E   E  Q    Q    Q       Q    Q    E   E  Q      
---------5--------------|---------5--------------|-------3----------------| 
--------------6----6----|--------------6----6----|------------3s--5-------| 
------------------------|------------------------|-------------------5----| 
------------------------|------------------------|------------------------| 
--3s--5-----------------|--3s--5-----------------|--3---------------------| 
------------------------|------------------------|------------------------| 


  Q    Q    E   E  Q       E   E  Q    E   E  Q       E   E  Q    Q    Q      
-------3----------------|---------5----------------|---------5--------------| 
------------3s--5-------|--------------5s--6--6----|--------------6----6----| 
-------------------5----|--------------------------|------------------------| 
------------------------|--------------------------|------------------------| 
--3---------------------|--3s--5-------------------|--3s--5-----------------| 
------------------------|--------------------------|------------------------| 


  Q    Q    E   E  E  E     Q    Q    E   E  E  E     H        H          
-------3-----------------|-------3-----------------|--------------------| 
------------3s--5--------|------------3s--5--------|--3--------5--------| 
-------------------5-----|-------------------5-----|--3--------L--------| 
----------------------5--|----------------------5--|--3--------L--------| 
--3----------------------|--3----------------------|--------------------| 
-------------------------|-------------------------|--------------------| 


  H        H           H        H          
-----------3--------|--------------------| 
--6--------L--------|--3--------5--------| 
--L--------L--------|--3--------L--------| 
--L--------L--------|--3--------L--------| 
--------------------|--------------------| 
--------------------|--------------------| 


  |--3--|  |--3--|  |--3--|  |--3--|              |---3--|          
  E  E  E  E  E  E  E  E  E  E  E  E     H        E   E  E  Q      
--x--x--x--x--x--x--x--x--x--x--x--x--|------------------3--------| 
--x--x--x--x--x--x--x--x--x--x--x--x--|-----------3h--5-----5b----| 
--x--x--x--x--x--x--x--x--x--x--x--x--|--5------------------------| 
--x--x--x--x--x--x--x--x--x--x--x--x--|--5------------------------| 
--x--x--x--x--x--x--x--x--x--x--x--x--|--3------------------------| 
--x--x--x--x--x--x--x--x--x--x--x--x--|---------------------------| 


           |--3--|  |--3--|              |--3--|          
  H        E  E  E  E  E  E     H        E  E  E   E  E    
-----------------------------|--5------------------------| 
-----------5--3--------------|--6------------------------| 
-----------------5--2-----2--|--5---------------------5--| 
--5--------------------5-----|--7--------5--5--5s--7-----| 
--5--------------------------|--5------------------------| 
--3--------------------------|---------------------------| 


            |--3--|  |--3--|                  |--3--|   |--3--|    
  Q    Q    E  E  E  E  E  E      Q     Q     Q     E   Q     E    
--8----8----8--8--8--8--8--8--|---8-----8-----8-----8---8----10--| 
--8----8----8--8--8--8--8--8--|---8-----8-----8-----8---8----10--| 
--7----7----7--7--7--7--7--7--|---9-----9-----9-----9---9-----9--| 
--7----7----7--7--7--7--7--7--|--10----10----10----10--10----10--| 
--8----8----8--8--8--8--8--8--|----------------------------------| 
------------------------------|----------------------------------| 


            |---3---|                      |--3-|  |--3-|    
  Q    Q    E   E   E   E  E     Q    Q    Q    E  Q    E    
--7----7----7h--8p--7---------|--3----3----3----3--3----3--| 
--8----8---------------10--8--|--3----3----3----3--3----3--| 
--7----7----------------------|--5----5----5----5--5----5--| 
------------------------------|--0----0----0----0--0----0--| 
------------------------------|----------------------------| 
------------------------------|----------------------------| 


            |----3---|   |---3--|                  |--3--|   |--3--|    
  Q    Q    E    E   E   E  E   E      Q     Q     Q     E   Q     E    
--8----8----8h--10p--8-------------|---8-----8-----8-----8---8----10--| 
--8----8----------------10--8--10--|---8-----8-----8-----8---8----10--| 
--x----x---------------------------|---9-----9-----9-----9---9-----9--| 
--x----x---------------------------|--10----10----10----10--10----10--| 
--8----8---------------------------|----------------------------------| 
-----------------------------------|----------------------------------| 


                                 PM PM PM      PM PM PM        
             |--3-|   |--3-|     |--3--|       |--3--|        
  Q    Q     Q    E   Q    E     E  E  E  Q    E  E  E  Q      
--7----7----10----8-----------|--3--3--3--3----3--3--3--3----| 
--8----8-----8----8--10----8--|--3--3--3--3----3--3--3--3----| 
--7----7-----7----7---7----7--|--5--5--5--5----5--5--5--5----| 
------------------------------|--0--0--0--0----0--0--0--0----| 
------------------------------|------------------------------| 
------------------------------|------------------------------| 


  PM PM PM                                                              
  |--3--|  |--3-|  |--3-|  |--3-|                  |--3--|   |--3--|    
  E  E  E  Q    E  Q    E  Q    E      Q     Q     Q     E   Q     E    
-----------8----8--8----8--8----8--|---8-----8-----8-----8---8----10--| 
-----------8----8--8----8--8----8--|---8-----8-----8-----8---8----10--| 
--7--7--7--7----7--7----7--7----7--|---9-----9-----9-----9---9-----9--| 
--7--7--7--7----7--7----7--7----7--|--10----10----10----10--10----10--| 
--8--8--8--8----8--8----8--8----8--|----------------------------------| 
-----------------------------------|----------------------------------| 


             |--3-|   |--3-|               |--3-|  |--3-|    
  Q    Q     Q    E   Q    E     Q    Q    Q    E  Q    E    
--7----7----10----8-----------|--3----3----3----3--3----3--| 
--8----8-----8----8--10----8--|--3----3----3----3--3----3--| 
--7----7-----7----7---7----7--|--5----5----5----5--5----5--| 
------------------------------|--0----0----0----0--0----0--| 
------------------------------|----------------------------| 
------------------------------|----------------------------| 


            |----3---|   |---3--|                  |--3--|   |--3--|    
  Q    Q    E    E   E   E  E   E      Q     Q     Q     E   Q     E    
--8----8----8h--10p--8-------------|---8-----8-----8-----8---8----10--| 
--8----8----------------10--8--10--|---8-----8-----8-----8---8----10--| 
--x----x---------------------------|---9-----9-----9-----9---9-----9--| 
--x----x---------------------------|--10----10----10----10--10----10--| 
--8----8---------------------------|----------------------------------| 
-----------------------------------|----------------------------------| 


                                 PM PM PM      PM PM PM        
             |--3-|   |--3-|     |--3--|       |--3--|        
  Q    Q     Q    E   Q    E     E  E  E  Q    E  E  E  Q      
--7----7----10----8-----------|--3--3--3--3----3--3--3--3----| 
--8----8-----8----8--10----8--|--3--3--3--3----3--3--3--3----| 
--7----7-----7----7---7----7--|--5--5--5--5----5--5--5--5----| 
------------------------------|--0--0--0--0----0--0--0--0----| 
------------------------------|------------------------------| 
------------------------------|------------------------------| 


  PM PM PM                                                                  
  |--3--|  |--3-|  |--3-|  |--3-|                                            
  E  E  E  Q    E  Q    E  Q    E     W                   W                  
-----------8----8--8----8--8----8--|-------------------|-------------------| 
-----------8----8--8----8--8----8--|-------------------|-------------------| 
--7--7--7--7----7--7----7--7----7--|-------------------|-------------------| 
--7--7--7--7----7--7----7--7----7--|--3----------------|--L----------------| 
--8--8--8--8----8--8----8--8----8--|--3----------------|--L----------------| 
-----------------------------------|--3----------------|--L----------------| 


  W                   W                   W                   W                  
-------------------|-------------------|-------------------|-------------------| 
-------------------|-------------------|-------------------|-------------------| 
-------------------|-------------------|-------------------|-------------------| 
--5----------------|--5----------------|--3----------------|--L----------------| 
--3----------------|--5----------------|--3----------------|--L----------------| 
--0----------------|--3----------------|--3----------------|--L----------------| 


                                |----3----|      
  W                   H         Q    Q    Q      
-------------------|---------------------------| 
-------------------|---------------------------| 
-------------------|-----------/5----4---------| 
--5----------------|--5-------------------5----| 
--3----------------|--5------------------------| 
--0----------------|--3------------------------| 


   |----3----|    |--3--|  |--3--|                                            
   Q    Q    Q    E  E  E  E  E  E     W                   W                  
------------------------------------|-------------------|-------------------| 
------------------6--5--6--8--6--5--|--3----------------|--L----------------| 
--/5----4---------7--5--7--9--7--5--|--4----------------|--L----------------| 
-------------5----------------------|--5----------------|--L----------------| 
------------------------------------|-------------------|-------------------| 
------------------------------------|-------------------|-------------------| 


  W                   W                   W                   W                  
-------------------|-------------------|-------------------|-------------------| 
-------------------|-------------------|-------------------|-------------------| 
-------------------|-------------------|-------------------|-------------------| 
--5----------------|--5----------------|--3----------------|--L----------------| 
--3----------------|--5----------------|--3----------------|--L----------------| 
--0----------------|--3----------------|--1----------------|--L----------------| 


  W                   H        Q    Q       Q    E  E  H          
-------------------|---------------------|----------------------| 
-------------------|---------------------|----------------------| 
-------------------|---------------------|----------------------| 
--5----------------|--5--------3----3----|--3----3--3--5--------| 
--3----------------|--5--------3----3----|--3----3--3--3--------| 
--0----------------|--3--------1----1----|--1----1--1--0--------| 


  W                   Q    Q    Q    E  E     W                  
-------------------|-----------------------|-------------------| 
-------------------|-----------------------|-------------------| 
-------------------|-----------------------|-------------------| 
--L----------------|--3----3----3----3--3--|--5----------------| 
--L----------------|--3----3----3----3--3--|--3----------------| 
--L----------------|--1----1----1----1--1--|--0----------------| 


  H        Q    Q       Q    E  E  H           W                  
---------------------|----------------------|-------------------| 
---------------------|----------------------|-------------------| 
---------------------|----------------------|-------------------| 
--L--------3----3----|--3----3--3--5--------|--L----------------| 
--L--------3----3----|--3----3--3--3--------|--L----------------| 
--L--------1----1----|--1----1--1--0--------|--L----------------| 


  Q    Q    Q    E  E     W                   H        Q    Q      
-----------------------|-------------------|---------------------| 
-----------------------|-------------------|---------------------| 
-----------------------|-------------------|---------------------| 
--3----3----3----3--3--|--5----------------|--L--------3----3----| 
--3----3----3----3--3--|--3----------------|--L--------3----3----| 
--1----1----1----1--1--|--0----------------|--L--------1----1----| 


  Q    E  E  H           W                   Q    Q    Q    E  E    
----------------------|-------------------|-----------------------| 
----------------------|-------------------|-----------------------| 
----------------------|-------------------|-----------------------| 
--3----3--3--5--------|--L----------------|--3----3----3----3--3--| 
--3----3--3--3--------|--L----------------|--3----3----3----3--3--| 
--1----1--1--0--------|--L----------------|--1----1----1----1--1--| 


  W                   H        Q    Q       Q    E  E  H          
-------------------|---------------------|----------------------| 
-------------------|---------------------|----------------------| 
-------------------|---------------------|----------------------| 
--5----------------|--L--------3----3----|--3----3--3--5--------| 
--3----------------|--L--------3----3----|--3----3--3--3--------| 
--0----------------|--L--------1----1----|--1----1--1--0--------| 


  W                   Q    Q    Q    E  E     W                  
-------------------|-----------------------|-------------------| 
-------------------|-----------------------|-------------------| 
-------------------|-----------------------|-------------------| 
--L----------------|--3----3----3----3--3--|--5----------------| 
--L----------------|--3----3----3----3--3--|--3----------------| 
--L----------------|--1----1----1----1--1--|--0----------------| 


  H        Q    Q       Q    E  E  H           W                  
---------------------|----------------------|-------------------|| 
---------------------|----------------------|-------------------|| 
---------------------|----------------------|-------------------|| 
--L--------3----3----|--3----3--3--5--------|--L----------------|| 
--L--------3----3----|--3----3--3--3--------|--L----------------|| 
--L--------1----1----|--1----1--1--0--------|--L----------------|| 

Duration Legend 
--------------- 
W - whole 
H - half 
Q - quarter 
E - 8th 
S - 16th 
T - 32nd 
X - 64th 
. - note dotted 
|-n-|  - n-tuplets 


Tablature Legend 
---------------- 
L - tied note 
x - dead note 
g - grace note 
(n) - ghost note 
> - accentuded note 
NH - natural harmonic 
AH - artificial harmonic 
TH - tapped harmonic 
SH - semi harmonic 
PH - pitch harmonic 
h - hammer on 
p - pull off 
b - bend 
br - bendRelease 
pb - preBend 
pbr - preBendRelease 
brb - bendReleaseBend 
\n/ - tremolo bar dip 
\n - tremolo bar dive 
-/n - tremolo bar Release up 
/n\ - tremolo bar inverted dip 
/n - tremolo bar return 
-\n - tremolo bar Release down 
S - shift slide 
s - legato slide 
/ -  slide into from below or out of upwards 
\ -  slide into from above or out of downwards 
~ - vibrato 
W - wide vibrato 
tr - trill 
TP - tremolo picking 
T - tapping 
S - slap 
P - pop 
< - fade in 
^ - brush up 
v - brush down 

Self-inflicted or not, I find myself on the farthest star, foreign to everything like I woke up with a German tongue.

User avatar
Scott
Legend
Posts: 540
Joined: Sat Aug 02, 2008 11:33 am
Location: Maryland
Contact:

Re: The Church Channel

Post by Scott » Sun Aug 03, 2008 11:06 pm

Self-inflicted or not, I find myself on the farthest star, foreign to everything like I woke up with a German tongue.

Post Reply