Retarded In Love

User avatar
the futile
Posts: 63
Joined: Sun Aug 10, 2008 7:56 pm

Retarded In Love

Postby the futile » Sun Aug 10, 2008 7:59 pm

Some parts are off, like the ending, hopefully you lot can sort it out.

Code: Select all

Verse:

e|--------3-------3------------------------------------|
B|--------3-------3------------------------------------|
G|--------4-------4------------------------------------|
D|--------5-------5----------4---4/5-4-2-4-------------|
A|--------5-------5----0-2----2------------------------|
E|---3---------3---------------------------------------|

e|--------0-----0--------------------------------------|
B|--------0-----0-----------------0--------------------|
G|--------0-----0-------------0-----0---0--------------|
D|--------2-----2-----------2---2-----2----------------|
A|-----2--2--2--2-------0-3----------------------------|
E|-----0-----0-----------------------------------------|

e|-----------------------------------------------------|
B|-----------------------------------------------------|
G|---4---------4---------------------------------------|
D|---4--xP.M---4---------------------------------------|
A|---2---------2---------------------------------------|
E|-----------------------------------------------------|

Chorus:

e|----3------------------------------------------------|
B|----0------0-----------------------------------------|
G|----0------0-----------------------------------------|
D|----0------2-----------------------------------------|
A|----2------2-----------------------------------------|
E|----3------0-----------------------------------------|


Bridge:

e|-----------------------------------------------------|
B|-----------------------------------------------------|
G|-----------------------------------------------------|
D|-----------------------------------------------------|
A|---7--55--33------33-----5555-3-0-3-0-5/7------------|
E|--------------33------33-----------------------------|

e|-----------------------------------------------------|
B|-----------------------------------------------------|
G|-----------------------------------------------------|
D|-----------------------------------------------------|
A|---7--55--33------33--55---3/-55-77-55-3-5-----------|
E|--------------33-------------------------------------|

e|-----------------------------------------------------|
B|-----------------------------------------------------|
G|---9--77--55------55-------77-44-5--66-77-99---------|
D|---9--77--55--55--55--55---77-44-5--66-77-99---------|
A|---7--55--33--55--33--55---55-22-3--44-55-77---------|
E|--------------33------33-----------------------------|

e|-----------------------------------------------------|
B|-----------------------------------------------------|
G|---9--77--55------55-------77-55---------------------|
D|---9--77--55--55--55--55---77-55-55------------------|
A|---7--55--33--55--33--55---55-33-55------------------|
E|--------------33------33---------33------------------|

Outro:

e|-----------------------------------------------------|
B|-----------------------------------------------------|
G|----77--77--55-44---77-77-77-------------------------|
D|----77--55--55-55---77-55-77-------------------------|
A|----55--33----------55-33----------------------------|
E|------------55-55---------77-------------------------|

You've got to go with the motion, oh
Can you feel it in your bones?

Jiarb
Posts: 9
Joined: Mon Aug 04, 2008 5:27 pm

Re: Retarded In Love

Postby Jiarb » Sun Aug 10, 2008 9:52 pm

Nice! I'll be working on edits for this tomorrow. :)

User avatar
the futile
Posts: 63
Joined: Sun Aug 10, 2008 7:56 pm

Re: Retarded In Love

Postby the futile » Sun Aug 10, 2008 10:07 pm

Jiarb wrote:Nice! I'll be working on edits for this tomorrow. :)


im pretty sure theres a tab on UG where the barre is a G so you lot can see what suits :)
You've got to go with the motion, oh
Can you feel it in your bones?

User avatar
steveo
Legend
Posts: 89
Joined: Sat Aug 02, 2008 4:46 pm

Re: Retarded In Love

Postby steveo » Mon Aug 11, 2008 12:40 am

solid tab
Image
Oh, I'll be around to pick your pretty heart right off the ground when all this
fucking fashion brings you down.
http://www.purevolume.com/stevearuilioistheman

User avatar
the futile
Posts: 63
Joined: Sun Aug 10, 2008 7:56 pm

Re: Retarded In Love

Postby the futile » Mon Aug 11, 2008 1:53 am

steveo wrote:solid tab

the last bits way off
i think.
You've got to go with the motion, oh
Can you feel it in your bones?

uiop21
Posts: 16
Joined: Fri Aug 22, 2008 4:15 am

Re: Retarded In Love

Postby uiop21 » Fri Aug 22, 2008 1:57 pm

Hey good tab and all, but the bridge is off for sure

NoSmokingBandit
Posts: 5
Joined: Fri Aug 15, 2008 10:32 pm

Re: Retarded In Love

Postby NoSmokingBandit » Sat Aug 23, 2008 1:33 pm

heres the lead part for the chorus:

Code: Select all

|-14-15----17-15-------------------------19-15-17-|-14-15----17-15-------------15h17p15----15h17p15----19-|
|-------15-------15-------15-------15-15----------|-------15-------15-------15----------15----------15----|
|-------------------16-17----16-17----------------|-------------------16-17-------------------------------|
|-------------------------------------------------|-------------------------------------------------------|
|-------------------------------------------------|-------------------------------------------------------|
|-------------------------------------------------|-------------------------------------------------------|

|-14-15----17-15--------------------------------|-------------------------------15--|
|-------15-------15----13-13h15-----13-13h15-13-|----13-15-----13-13h14----13---15--|
|-------------------16-----------16-------------|-16----------------------------12--|
|-----------------------------------------------|-----------12----------12------12--|
|-----------------------------------------------|-----------------------------------|
|-----------------------------------------------|-----------------------------------|

User avatar
the futile
Posts: 63
Joined: Sun Aug 10, 2008 7:56 pm

Re: Retarded In Love

Postby the futile » Sat Aug 23, 2008 1:46 pm

uiop21 wrote:Hey good tab and all, but the bridge is off for sure


well you know more than i do, tab it :D
You've got to go with the motion, oh
Can you feel it in your bones?

uiop21
Posts: 16
Joined: Fri Aug 22, 2008 4:15 am

Re: Retarded In Love

Postby uiop21 » Sun Sep 28, 2008 1:07 am

Yea mines the tab on UG, I just updated it.


Return to “In Defense of the Genre”

Who is online

Users browsing this forum: No registered users and 1 guest