Skinny, Mean Man

User avatar
the futile
Posts: 63
Joined: Sun Aug 10, 2008 7:56 pm

Skinny, Mean Man

Postby the futile » Sun Aug 10, 2008 11:11 pm

Code: Select all

e|---------------------------------
B|---------------------------------
G|-13------11------9--------8------
D|-x--(x8)-x--(x8)-x--(x8)--x--(x8)
A|-11------9-------7--------6------
E|---------------------------------

then

e|---------------------------------
B|---------------------------------
G|-13------15------16-------13-----
D|-x--(x8)-x--(x8)-x--(x8)--x--(x8)
A|-11------13------14-------11-----
E|---------------------------------

Verse:

e|---------------------------------------------------------------|
B|---------------------------------------------------------------|
G|--13-13-13-13-13-13-11-11-11-11-11-11-9-9-9-9-9-9-8-8-8-8-8-8--|
D|--13-13-13-13-13-13-11-11-11-11-11-11-9-9-9-9-9-9-9-9-9-9-9-9--|x2
A|--11-11-11-11-11-11-9--9--9--9--9--9--7-7-7-7-7-7-7-7-7-7-7-7--|
E|---------------------------------------------------------------|

e|---------------------------------------------------------------------|
B|---------------------------------------------------------------------|
G|--13-13-13-13-13-13-15-15-15-15-15-15-16-16-16-16-16-16-9-9-9-9-9-9--|
D|---x--x--x--x--x--x--x--x--x--x--x--x--x--x--x--x--x--x-x-x-x-x-x-x--|x1
A|--11-11-11-11-11-11-13-13-13-13-13-13-14-14-14-14-14-14-7-7-7-7-7-7--|
E|---------------------------------------------------------------------|

e|--------------------------------------------------------|
B|--------------------------------------------------------|
G|--13-13-13-13-13-13-11-11-11-11-11-11---9---8-8~--8-8~--|
D|--13-13-13-13-13-13-11-11-11-11-11-11---9---9-9~--9-9~--|x1
A|--11-11-11-11-11-11-9--9--9--9--9--9----7---7-7~--7-7~--|
E|--------------------------------------------------------|


Pre-chorus

Guitar 1:
e|-------------------------------------------------------------------------|
B|-------------------------------------------------------------------------|
G|----9h11p9---11/13\11--13p0-15p0-13p0----9h11p9----11/13\11-13p0-15p0-16-|
D|--9--------9---------------------------9---------9-----------------------|
A|-------------------------------------------------------------------------|
E|-------------------------------------------------------------------------|

Guitar 2:
e|----------------------------------------------------|
B|----------------------------------------------------|
G|--4p0-6p0-8p0-6p0--8/9/11\--4p0-6p0-7p0-9--8/9/11\--|
D|-------------------x-x-x-------------------x-x-x----|
A|-------------------6/7/9\------------------6/7/9\---|
E|----------------------------------------------------|

Chorus:

e|------------------------------------------------|
B|---------12-12-12-12-12-------------------------|
G|---------11-11-11-11-11--11-11-11-11--9-9-9-9---|
D|--9-9-9--9--9--9--9--9---11-11-11-11--9-9-9-9---|
A|--9-9-9------------------9--9--9--9---7-7-7-7---|
E|--7-7-7-----------------------------------------|

Bridge: "Gasoline..."

e|--------------------------------------------------
B|--------------------------------------------------
G|-----------------------------------9-9-9-9-9-9-9--
D|--9--8-8--6-6--9-9-9-9-7-7-7-7-7-7-9-9-9-9-9-9-9--
A|--9--8-8--6-6--9-9-9-9-7-7-7-7-7-7-7-7-7-7-7-7-7--
E|--7--6-6--4-4--7-7-7-7-5-5-5-5-5-5----------------

Outro: "Faaaaster..."
e|-----------------------------------------|
B|---------4--------------------4-4h5-5/7--|
G|----4----4-----------4-------------------|
D|--4---4--4--4-----------4----------------|
A|---------------7-4h6--------7------------|
E|-----------------------------------------|

e|----------------------------|
B|---------4-----------5-4----|
G|----4----4--4------------4--|
D|--4---4--4-----4------------|
A|------------------7---------|
E|----------------------------|

Then Guitar 2 comes with
e|---------------------------------------------------------------|
B|--1212121212121212---------------------------------------------|
G|--1111111111111111---11h13-11~--11h13-11h13-11h13--------------|
D|--9-9-9-9-9-9-9-9---------------------------------11h13-11-----|
A|-----------------------------------------------------------14--|
E|---------------------------------------------------------------|

e|-------------------------------------------------------------------------|
B|------------------------------12~--------12h14-12-14b16r14p12------------|
G|--11h13-11~-11h13-11h13-11h13------11h13----------------------13-13-13\--|
D|-------------------------------------------------------------------------|
A|-------------------------------------------------------------------------|
E|-------------------------------------------------------------------------|

e|----------------------------------------------------11------------|
B|-------------------------------------------------------14-12h14~--|
G|--------11h13-11~--------------11---------------------------------|
D|-------------------------11h13----11h13p11-11h13p11---------------|
A|-------------------12h14------------------------------------------|
E|--7-9-------------------------------------------------------------|
  pm___
You've got to go with the motion, oh
Can you feel it in your bones?

User avatar
steveo
Moderator
Posts: 89
Joined: Sat Aug 02, 2008 4:46 pm

Re: Skinny, Mean Man

Postby steveo » Mon Aug 11, 2008 12:28 am

I think we went over this tab on the SA boards. It's really not good haha um. the intro is semi-right and thats really all i find thats correct.

Code: Select all

e|---------------------------------
B|---------------------------------
G|-13------11------9--------8------
D|-x--(x8)-x--(x8)-x--(x8)--x--(x8)
A|-11------9-------7--------6------
E|---------------------------------
 *play this twice

e|---------------------------------
B|---------------------------------
G|-13------15------16-------9-----
D|-x--(x8)-x--(x8)-x--(x8)--x--(x8)
A|-11------13------14-------7-----
E|---------------------------------
                E chord
e|---------------------------------
B|---------------------------------
G|-13---11---- 1---------------------
D|-x-----x------2------------------
A|-11----9------2-------------------
E|---------------------------------


is what i think the intro is.

For the first verse's you play the intro
Image
Oh, I'll be around to pick your pretty heart right off the ground when all this
fucking fashion brings you down.
http://www.purevolume.com/stevearuilioistheman

User avatar
the futile
Posts: 63
Joined: Sun Aug 10, 2008 7:56 pm

Re: Skinny, Mean Man

Postby the futile » Mon Aug 11, 2008 12:30 am

yeah i think you're right too
and i guess this could just be a basis
so everyone should start posting their own arrangements and maybe we'll actually get a full correct tab
which is the purpose of this :)
You've got to go with the motion, oh
Can you feel it in your bones?

User avatar
steveo
Moderator
Posts: 89
Joined: Sat Aug 02, 2008 4:46 pm

Re: Skinny, Mean Man

Postby steveo » Mon Aug 11, 2008 12:31 am

the futile wrote:yeah i think you're right too
and i guess this could just be a basis
so everyone should start posting their own arrangements and maybe we'll actually get a full correct tab
which is the purpose of this :)



atta boy
Image
Oh, I'll be around to pick your pretty heart right off the ground when all this
fucking fashion brings you down.
http://www.purevolume.com/stevearuilioistheman

User avatar
the futile
Posts: 63
Joined: Sun Aug 10, 2008 7:56 pm

Re: Skinny, Mean Man

Postby the futile » Mon Aug 11, 2008 12:35 am

steveo wrote:
the futile wrote:yeah i think you're right too
and i guess this could just be a basis
so everyone should start posting their own arrangements and maybe we'll actually get a full correct tab
which is the purpose of this :)



atta boy


scots aren't stupid ;)
You've got to go with the motion, oh
Can you feel it in your bones?

User avatar
Scott
Site Admin
Posts: 540
Joined: Sat Aug 02, 2008 11:33 am
Location: Maryland
Contact:

Re: Skinny, Mean Man

Postby Scott » Mon Aug 11, 2008 1:12 pm

the futile wrote:
steveo wrote:
the futile wrote:yeah i think you're right too
and i guess this could just be a basis
so everyone should start posting their own arrangements and maybe we'll actually get a full correct tab
which is the purpose of this :)



atta boy


scots aren't stupid ;)


why thank you, but I thought your name was graham?
Self-inflicted or not, I find myself on the farthest star, foreign to everything like I woke up with a German tongue.

User avatar
the futile
Posts: 63
Joined: Sun Aug 10, 2008 7:56 pm

Re: Skinny, Mean Man

Postby the futile » Mon Aug 11, 2008 5:13 pm

Scott wrote:
the futile wrote:
scots aren't stupid ;)


why thank you, but I thought your name was graham?


you are a funny boy.
You've got to go with the motion, oh
Can you feel it in your bones?


Return to “In Defense of the Genre”

Who is online

Users browsing this forum: No registered users and 1 guest