Spay Me

User avatar
the futile
Posts: 63
Joined: Sun Aug 10, 2008 7:56 pm

Spay Me

Postby the futile » Mon Aug 11, 2008 1:42 am

any tabs for this?
You've got to go with the motion, oh
Can you feel it in your bones?

User avatar
Scott
Site Admin
Posts: 540
Joined: Sat Aug 02, 2008 11:33 am
Location: Maryland
Contact:

Re: Spay Me

Postby Scott » Mon Aug 11, 2008 3:05 am

Code: Select all

intro

e|---------------15--|
B|-4--16--3------15--|
G|-0---0--0----------|
D|-x---x--0------12--|
A|-3--15--x----------|
E|--------3---/12----|

e|---------------15--|
B|-4--13--3------15--|
G|-0---0--0----------|
D|-x---x--0------12--|
A|-3--12--x----------|
E|--------3---/12----|
   
                   *
e|----------------15-------|
B|-4--16--3-------15-------|
G|-0---0--0--------------5-|
D|-x---x--0-------12--2----|
A|-3--15--x-----------3--5-|
E|--------3---/12-----1----|
* Strum this chord after using the slide to the 12th fret as a passing note. listen to the CD to get the timing.
also the 12 in this chord on the D string could be played as the 17th on the A string depending on what you're comfortable with..


good luck with the rest guys this should be a good start
Self-inflicted or not, I find myself on the farthest star, foreign to everything like I woke up with a German tongue.

User avatar
Scott
Site Admin
Posts: 540
Joined: Sat Aug 02, 2008 11:33 am
Location: Maryland
Contact:

Re: Spay Me

Postby Scott » Mon Aug 11, 2008 3:32 am

ok I did the verse's rhythm too.. I put too version.. one is fuller and sounds cooler but I think it's the second one on the CD...

Code: Select all

verse

this next part is most likely two guitars but it can be played on one and that's how i'm tabbing it.
first do a slide (as shown...) then..
e|-----|----------------|-----|
B|-----|----------------|-----|
G|-----|---4--/12-12-12-|--7--|
D|-----|---5--/12-12-12-|--5--| 
A|-----|------/14-14-14-|--3--|
E|-15\-|---3------------|-----|

however part of me thinks it is this simpler alternate version..
e|-----|----------------|-----|
B|-----|----------------|-----|
G|-----|---4--/12-12-12-|--7--|
D|-----|----------------|--5--|
A|-----|------/14-14-14-|--3--|
E|-15\-|---3------------|-----|

then

e|--------|---------------|
B|--------|---------------|
G|--7-5-4-|---------8--7--|
D|--------|--7---------7--|
A|--5-3-2-|--7------6--5--|
E|--------|--5---3--------|

and later

"if i'm an arrogant prick..." rhythm guitar
e|----------|
B|-3--3--3--|
G|-0--0--0--|
D|-x--x--2--| followed by solo
A|-3--2--0--|
E|----------|

Self-inflicted or not, I find myself on the farthest star, foreign to everything like I woke up with a German tongue.

Jiarb
Posts: 9
Joined: Mon Aug 04, 2008 5:27 pm

Re: Spay Me

Postby Jiarb » Mon Aug 11, 2008 3:24 pm

I've got some stuff figured out for this. I'll be posting it later when I get home from work.

Jiarb
Posts: 9
Joined: Mon Aug 04, 2008 5:27 pm

Re: Spay Me

Postby Jiarb » Mon Aug 11, 2008 10:16 pm

Alright, here's some edits I've made and parts I've sort of figured out. Scott's a better tabber so I'm sure he'll make it 100%:

Code: Select all

Alright, for this part there are definitely to different chords being played before the slides but I can only figure out one:
Also, notice the change up the second time you play the "slides":
e|-----|-----------------|
B|-----|-----------------|
G|-----|---4--/12-12-12\-|
D|-----|---5--/12-12-12\-|
A|-----|---2-------------|
E|-15\-|-----------------|

e|---------------|-------------|
B|---------------|-------8-7-5-|
G|-4-------------|--7--7-------|
D|-5--/12-12-12\-|--5----------|
A|-2--/14-14-14\-|--3----------|
E|---------------|-------------|

e|---------------|
B|---------------|
G|-4-------------|
D|-5--/12-12-12\-|
A|-2--/14-14-14\-|
E|---------------|

e|----------------|-------------|
B|----------------|-------8-7-5-|
G|--4--/12-12-12\-|--7--7-------|
D|--5--/12-12-12\-|--5----------|
A|--2-------------|--3----------|
E|----------------|-------------|

e|--------|------------------|
B|--------|---8---8----------|
G|--7-5-4-|-9---9---9-8--7---|
D|--x-x-x-|--------------7---|
A|--5-3-2-|--------------5---|
E|--------|------------------|


arrogant prick part
e|----------|
B|-3--3--3--|
G|-0--0--0--|
D|-x--x--2--| followed by solos:
A|-3--2--0--|
E|----------|
1st
e|--------------------|
B|-1p0--------------0-|
G|-----2p0------------|
D|---------2--2p0-----|
A|----------------2---|
E|--------------------|
2nd
e|---------------------|
B|---------------------|
G|-------0-------------|
D|---0-2-------0-----0-|
A|-2-------0h2---0h2---|
E|---------------------|
3rd
e|-----3-5-5/7-5-3--|
B|-3/5--------------|
G|------------------|
D|------------------|
A|------------------|
E|------------------|
4th
e|----------------------|
B|--------------------0-|
G|-2p0---2p0---2p0------|
D|----2p0---2p0---2p0---|
A|----------------------|
E|----------------------|

5th
e|--------------|
B|--------------|
G|-4/5-7-9-7-77-|
D|--------------|
A|--------------|
E|--------------|

6th
e|------------------|
B|--8p7----5-7------|
G|-------7-----7----|
D|------------------|
A|------------------|
E|------------------|

the 7th is just up and down string scrapes

nights i've spent alone...
e|------------|
B|-3--3--3--3-|
G|-0--0--0--0-|
D|-x--x--2--0-|
A|-3--2--0--x-|
E|----------3-|

i'm gone, i'm gone, i'm gone...
e|---------------------|
B|---------------------|
G|---------------------|
D|-22222222222222-2-2--|
A|-33333333333333-3-3--|
E|-10101010101010-1-0--|

luke
Posts: 11
Joined: Sun Aug 10, 2008 10:59 pm

Re: Spay Me

Postby luke » Tue Aug 19, 2008 1:17 pm

You didn't have this, so I tried to figure it out

Code: Select all

E|-----------------------------
B|-----------------------------
G|-----------------------------
D|--2-4-5-444-4-5-7-9-7-44-2~--
A|--2-4-5-555-4-5-7-9-7-44-2~--
E|--0-2-3-222-2-3-5-7-5-22-0~--
the "cater to me" part, chords follow melody

It might be a little off, and as a matter of fact I'm not even sure if there is a guitar for this part, but this is roughly the melody played in power chords.

James
Posts: 13
Joined: Tue Aug 05, 2008 6:29 am

Re: Spay Me

Postby James » Sun Dec 21, 2008 11:23 pm

I don't think it's played exactly like the tabs here, but I think it sounds close enough.

http://www.youtube.com/watch?v=GPz0P9ulNZE

And pardon the ramblings.

Also I know I messed up the lyrics.


Return to “In Defense of the Genre”

Who is online

Users browsing this forum: No registered users and 1 guest