Vexed

User avatar
the futile
Posts: 63
Joined: Sun Aug 10, 2008 7:56 pm

Vexed

Postby the futile » Mon Aug 11, 2008 10:15 am

Code: Select all

===Intro (x3)===

*Note-the chord in parenthesis is not played the 6th time through both of the intros

e|------------------------------------------------------------------|
B|------------------------------------------------------------------|
G|--------------7-7-------------------------------------------------|
D|--4-4---7-7---7-7---7-7---7-7---7-7---6-6---7--7------------------|
A|--4-4---7-7---5-5---7-7---7-7---7-7---7-7---7--7------------------|
E|--2-2---5-5---5-5---5-5---5-5---5-5---5-5---5--5------------------|

e|------------------------------------------------------------------|
B|------------------------------------------------------------------|
G|--------------7-7-------------------------------------------------|
D|--4-4---7-7---7-7---7-7---------7-7---9-9---7-(7)-----------------|
A|--4-4---7-7---5-5---7-7---7-7---7-7---7-7---7-(7)-----------------|
E|--2-2---5-5---5-5---5-5---5-5---5-5---5-5---5-(5)-----------------|
    Ohhhhhhh...
    Pay your respects
    to a greater intellect
    You're just a pawn, does this
    confession turn you on?

===Verse===

e|-------------------------------------------------------------------|
B|-------------------------------------------------------------------|
G|-7-6-9-6-7-6-9-6--4-4-4s6s4-2-2------------------------------------|
D|-------------------------------------------------------------------|
A|-------------------------------------------------------------------|
E|-------------------------------------------------------------------|
    I know your kind,

e|------------------7-----7-----7------------------------------------|
B|--------------------0-----0----------------------------------------|
G|-7-6-9-6-7-6-9-6------9-----9--------------------------------------|
D|-------------------------------------------------------------------|
A|-------------------------------------------------------------------|
E|-------------------------------------------------------------------|
     you'd do me from behind


e|-------------------------------------------------------------------|
B|-------------------------------------------------------------------|
G|-7-6-9-6-7-6-9-6--4-4-4s6s4-2-2------------------------------------|
D|-------------------------------------------------------------------|
A|-------------------------------------------------------------------|
E|-------------------------------------------------------------------|
     And when everybody stares, their eyes will

e|-----------------5s9-7-7-5-5~\---7---------------------------------|
B|---------------------------------9---------------------------------|
G|-7-6-9-6-7-6-9-6---------------------------------------------------|
D|-------------------------------------------------------------------|
A|-------------------------------------------------------------------|
E|-------------------------------------------------------------------|
     bare the sharpest glare


===Chorus===

e|------12-----------------------------------------------------------|
B|-10-9----9---------------------------------------------------------|
G|-------------9b-9-9--9b-9-9----------------------------------------|
D|-------------7--7-7--7--7-7----------------------------------------|
A|-------------------------------------------------------------------|
E|-------------------------------------------------------------------|
     Everybody knows beneath your clothes

e|------12---------12------------------------------------------------|
B|-10-9----9---7-9----10--10-9-7-------------------------------------|
G|-------------------------------------------------------------------|
D|-------------------------------------------------------------------|
A|-------------------------------------------------------------------|
E|-------------------------------------------------------------------|
     Staring at your toes is just a pose

e|-------------12----------------------------------------------------|
B|---x-x-x-x-9----10-------------------------------------------------|
G|---x-x-x-x---------9b-9-9--9b-9-9----------------------------------|
D|---x-x-x-x---------7--7-7--7--7-7----------------------------------|
A|-------------------------------------------------------------------|
E|-------------------------------------------------------------------|
     Everybody good knows how hard you blow

e|-------------------------------------------------------------------|
B|-------------------------------------------------------------------|
G|---6-6-6-6-6~------------------------------------------------------|
D|---7-7-7-7-7~------------------------------------------------------|
A|---7-7-7-7-7~------------------------------------------------------|
E|---5-5-5-5-5~------------------------------------------------------|
     Everybody knows

==Intro (x3)===

e|------------------------------------------------------------------|
B|------------------------------------------------------------------|
G|--------------7-7-------------------------------------------------|
D|--4-4---7-7---7-7---7-7---7-7---7-7---6-6---7--7------------------|
A|--4-4---7-7---5-5---7-7---7-7---7-7---7-7---7--7------------------|
E|--2-2---5-5---5-5---5-5---5-5---5-5---5-5---5--5------------------|

e|-------------------------------------------------------------------|
B|-------------------------------------------------------------------|
G|--------------7-7--------------------------------------------------|
D|--4-4---7-7---7-7---7-7---------7-7---9-9---7-(7)------------------|
A|--4-4---7-7---5-5---7-7---7-7---7-7---7-7---7-(7)------------------|
E|--2-2---5-5---5-5---5-5---5-5---5-5---5-5---5-(5)------------------|
    Ohhhhh...
    You did me wrong,
    I grinned and played along
    Those days are gone, does this
    confession turn you on?

===Verse(same as 1st verse)===

e|-------------------------------------------------------------------|
B|-------------------------------------------------------------------|
G|-7-6-9-6-7-6-9-6--4-4-4s6s4-2-2------------------------------------|
D|-------------------------------------------------------------------|
A|-------------------------------------------------------------------|
E|-------------------------------------------------------------------|
    I'd see you stoned,

e|------------------7-----7-----7------------------------------------|
B|--------------------0-----0----------------------------------------|
G|-7-6-9-6-7-6-9-6------9-----9--------------------------------------|
D|-------------------------------------------------------------------|
A|-------------------------------------------------------------------|
E|-------------------------------------------------------------------|
     lawn chair to gilded throne

e|-------------------------------------------------------------------|
B|-------------------------------------------------------------------|
G|-7-6-9-6-7-6-9-6--4-4-4s6s4-2-2------------------------------------|
D|-------------------------------------------------------------------|
A|-------------------------------------------------------------------|
E|-------------------------------------------------------------------|
     You cut your tiny ties and now you're

e|-----------------5s9-7-7-5-5~\--9----------------------------------|
B|--------------------------------7----------------------------------|
G|-7-6-9-6-7-6-9-6---------------------------------------------------|
D|-------------------------------------------------------------------|
A|-------------------------------------------------------------------|
E|-------------------------------------------------------------------|
     dangling by a lie

===Chorus(same as 1st chorus)===

e|------12-----------------------------------------------------------|
B|-10-9----9---------------------------------------------------------|
G|-------------9b-9-9--9b-9-9----------------------------------------|
D|-------------7--7-7--7--7-7----------------------------------------|
A|-------------------------------------------------------------------|
E|-------------------------------------------------------------------|
     Everybody knows beneath your clothes

e|------12---------12------------------------------------------------|
B|-10-9----9---7-9----10--10-9-7-------------------------------------|
G|-------------------------------------------------------------------|
D|-------------------------------------------------------------------|
A|-------------------------------------------------------------------|
E|-------------------------------------------------------------------|
     Staring at your toes is just a pose

e|-------------12----------------------------------------------------|
B|---x-x-x-x-9----10-------------------------------------------------|
G|---x-x-x-x---------9b-9-9--9b-9-9----------------------------------|
D|---x-x-x-x---------7--7-7--7--7-7----------------------------------|
A|-------------------------------------------------------------------|
E|-------------------------------------------------------------------|
     Everybody good knows how hard you blow

e|-------------------------------------------------------------------|
B|-------------------------------------------------------------------|
G|---6-6-6-6-6~------------------------------------------------------|
D|---7-7-7-7-7~------------------------------------------------------|
A|---7-7-7-7-7~------------------------------------------------------|
E|---5-5-5-5-7~------------------------------------------------------|
     Everybody knows

===Bridge===

e|-------------------------------------------------------------------|
B|-------------------------------------------------------------------|
G|-----6~------6~-----6~--9-9-9-9------6~------6~-------11-11-9-9-9--|
D|-----7~------7~-----7~--9-9-9-9------7~------7~-------11-11-9-9-9--|
A|-7-7----7-7-----7-7-----7-7-7-7--7-7----7-7-----7-7----9--9-7-7-7--|
E|-5-5----5-5-----5-5--------------5-5----5-5-----5-5----------------|
    You think you're Jesus Christ
    You think you're Jesus Christ

e|-------------------------------------------------------------------|
B|-------------------------------------------------------------------|
G|-----6~------6~------6~------6~------6~------6~-----6~--9-9-9-9----|
D|-----7~------7~------7~------7~------7~------7~-----7~--9-9-9-9----|
A|-7-7-----7-7-----7-7-----7-7-----7-7-----7-7----7-7-----7-7-7-7----|
E|-5-5-----5-5-----5-5-----5-5-----5-5-----5-5----5-5----------------|
    You think you're Jesus Christ
    You think you're Jesus Christ

===Outro===

e|-----/5-4~--/7 5~--/9-7~-----------/5-4~--/7-5~--/9-7~-------------|
B|--------------------------10-9-10-----------------------10-9-10----|
G|-------------------------------------------------------------------|
D|-------------------------------------------------------------------|
A|-------------------------------------------------------------------|
E|-12\---------------------------------------------------------------|
    You're not my Jesus Christ
    You're not my Jesus Christ

e|-12----12----12----12-----9--9-7-7h9p7-----------------------------|
B|----10----10----10----10---------------10--------------------------|
G|-------------------------------------------------------------------|
D|-------------------------------------------------------------------|
A|-------------------------------------------------------------------|
E|-------------------------------------------------------------------|
    You're not my Jesus Christ

e|-12----12----12----12-----9-9~\\\----------------------------------|
B|----10----10----10----10--7-7~\\\----------------------------------|
G|------------------------------------6~-----------------------------|
D|------------------------------------7~-----------------------------|
A|------------------------------------7~-----------------------------|
E|------------------------------------5~-----------------------------|
    You're not my Jesus Christ
You've got to go with the motion, oh
Can you feel it in your bones?

Jiarb
Posts: 9
Joined: Mon Aug 04, 2008 5:27 pm

Re: Vexed

Postby Jiarb » Tue Aug 12, 2008 5:42 pm

Uh, I just found this on my computer. I think Scott and I were working on it at some point:

Code: Select all

[Intro/Part 1]

 Guitar 1:
|-----------------------------------------------------------------|
|-----------------------------------------------------------------|
|-----2-2-----2-2-----2-2-1-1-1-1-----2-2-----2-2-----2-2-4-4-2-2-|
|-----2-2-----2-2-----2-2-2-2-2-2-----2-2-----2-2-----2-2-2-2-2-2-|
|---------5-5-----0-0---------------------5-5-----0-0-------------|
|-2-2-----------------------------2-2-----------------------------|

 Guitar 2:
|---------------------------------|-----------------7-----7-----7--|---------------------------------|-----------------7-7h9-7-5-5\-0--|
|-----5-------5-------------------|-----5-------5-------5-----5----|-----5-------5-------------------|-----5-------5-------------------|
|-7-------6-------4--2/6-4\2-2-/7-|-7-------6----------------------|-7-------6-------4--2/6-4\2-2-/7-|-7-------6-----------------------|
|---7---7---7---7-----------------|---7---7---7---7---7-----7----7-|---7---7---7---7-----------------|---7---7---7---7-----------------|
|---------------------------------|--------------------------------|---------------------------------|---------------------------------|
|---------------------------------|--------------------------------|---------------------------------|---------------------------------|


[Part 2]

 Guitar 1:
|------------12-------------------------------------------|------------12---------------10----9-------|-----------12-------------------------------------------|----------|
|-10----9----------9--------------------------------------|-10----9----------9-------10----10-----10--|------9----------9--------------------------------------|----------|
|---------------------------------------------------------|-----------------------11--------------11--|--------------------------------------------------------|----7--6--|
|-----------------------14b(15)r14-14-14-14b(15)r14-14-14-|---------------------------------------12--|----------------------14b(15)r14-14-14-14b(15)r14-14-14-|----7--7--|
|----12---12----12---12------------12-12------------12-12-|----12---12----12---12-----------------12--|-xxxx---12----12---12------------12-12------------12-12-|----5--7--|
|---------------------------------------------------------|-------------------------------------------|--------------------------------------------------------|----5--5--|


<[Repeat Everything Once

[Part 3]

 Guitar 1:
|-----------------------------------|---------------------------------------|------0-------0-------0-------0---|-----0-------0-------0-------------|(repaet until end
|-----2-------2-------2-------------|-----2-------2-------------------------|*-----2-------2-------2-------2---|-----2-------2-------2---2-2-2-2--*|then finish with
|-----2-------2-------2-----4-4-4-2-|-----2-------2-------11-11-9---9-------|------2-------2-------2-------2---|-----2-------2-------2---2-2-2-2---|an A chord)
|---------0-----------------6-6-6-2-|---------0-0---------------------------|------------------0-0-----0-0-----|-----------------0-0-----2-2-2-2---|
|-0-0-----------0-4-----4/7-7-------|-0-0-----------0-4-4-9--9--7-7-7-------|*---------------------------------|----------------------------------*|
|-----------------------------------|---------------------------------h7\2--|--2-2-----2-2---------------------|-2-2-----2-2-----------------------|


 Guitar 2:
|---------------------|-5-4---7-5---7/9-7---5-4-5---|-5-4---7-5---7/9-7---5-4-5-|-12----12----12----10----9---9-7-7h9p7-5--|-12----12----12----10----9-9\--|
|---------------------|-----------------------------|---------------------------|----10----10----10----10------------------|----10----10----10----10-------|
|---------------------|-----------------------------|---------------------------|------------------------------------------|-------------------------------|
|-(lots of noise)-9\--|-----------------------------|---------------------------|------------------------------------------|-------------------------------|
|---------------------|-----------------------------|---------------------------|------------------------------------------|-------------------------------|
|---------------------|-----------------------------|---------------------------|------------------------------------------|-------------------------------|

End on an A chord :)

User avatar
steveo
Legend
Posts: 89
Joined: Sat Aug 02, 2008 4:46 pm

Re: Vexed

Postby steveo » Tue Aug 12, 2008 8:30 pm

gotta figure out why the tabs look so messed up on some of them
Image
Oh, I'll be around to pick your pretty heart right off the ground when all this
fucking fashion brings you down.
http://www.purevolume.com/stevearuilioistheman

Jiarb
Posts: 9
Joined: Mon Aug 04, 2008 5:27 pm

Re: Vexed

Postby Jiarb » Wed Aug 13, 2008 10:49 am

Because some measure are too long for the width of the comment box. Copy and paste into Notepad.

NoSmokingBandit
Posts: 5
Joined: Fri Aug 15, 2008 10:32 pm

Re: Vexed

Postby NoSmokingBandit » Fri Aug 15, 2008 10:46 pm

Thats one i submitted a while ago, jiarb. I was just about to post it because im 90% sure the lead line is the verse is correct in that version. Sorry the lines are long, i have a huge monitor and i forget that other people might be viewing it at a lower resolution. I had to tweak Surgically Removing the Tracking device to make it fit but idk what it looks like on a smaller screen. Ill jump on my sisters laptop and edit it if its real bad :D


Return to “In Defense of the Genre”

Who is online

Users browsing this forum: No registered users and 1 guest