Surgically Removing The Tracking Device

NoSmokingBandit
Posts: 5
Joined: Fri Aug 15, 2008 10:32 pm

Surgically Removing The Tracking Device

Postby NoSmokingBandit » Fri Aug 15, 2008 10:40 pm

Code: Select all

[Intro/Verse]
 Guitar:
|-----------------------------------------------------------|(x4)
|*---------------------------------------------------------*|
|-----------------------------------------------------------|
|-----------------------------------------------------------|
|*-------------2-------------2-------------2---------------*|
|--2---2-5-2-5---2---2-5-2-5---2---2-5-2-5---2---2-5-2-5-4--|

 Keyboard (tabbed 1 octave lower than it really is):
|--12----16----17----14---------9h11h12-11-----12\11\9---|
|*----14----14----14----14------------------------------*|
|--------------------------------------------------------|
|--------------------------------------------------------|
|*------------------------------------------------------*|
|--------------------------------------------------------|


[Chorus]
|-------------------------------------------------------------------|
|*-----------------------------------------------------------------*|
|--------------------------9-9-9-9-------------------------9-9-9-9--|
|--7-7-7-7-7-7-7-7-7-7-7-7-x-x-x-x-7-777-7-7-7-7-7-7-7-7-7-x-x-x-x--|
|*-5-5-5-5-5-5-5-5-5-5-5-5-7-7-7-7-5-555-5-5-5-5-5-5-5-5-5-7-7-7-7-*|
|--5-5-5-5-5-5-5-5-5-5-5-5---------5-555-5-5-5-5-5-5-5-5-5----------|
PM                                   ***   * *   * *   * *
                                   

[Verse 2]
 Guitar:
|-----------------------------------------------------------|(x4)
|*---------------------------------------------------------*|
|-----------------------------------------------------------|
|-----------------------------------------------------------|
|*-------------2-------------2-------------2---------------*|
|--2---2-5-2-5---2---2-5-2-5---2---2-5-2-5---2---2-5-2-5-4--|
 
 Guitar 2:
|------------------------------------------------------------|
|------------------------------------------------------------|
|------------------------------------------------------------|
|-4----------------------------------------------------------|
|-4------------------------------------4#--------------------|
|-2----------------------------------------------------------|

 Keyboard (tabbed 1 octave lower than it really is):
|--12----16----17----14---------9h11h12-11-----12\11\9---|
|*----14----14----14----14------------------------------*|
|--------------------------------------------------------|
|--------------------------------------------------------|
|*------------------------------------------------------*|
|--------------------------------------------------------|


<[Chorus]

[Break]
 Guitar:
|------------5---------------------------------------------------------|-------2------------------2---------------|
|*-----------------------------------------------------------------13-*|*------2------------------2--------------*|
|--5--55555------2-2-2-2-4--------------------------------7-6------11--|------------------------------------------|
|----------7---------------4\---2---2-4---4-6---6-7---7-9-----7-9------|------------------------------------------|
|*--------------------------------4-----4-----4-----4-----------------*|*--------------------2---------2-2-2-----*|
|----------------------------------------------------------------------|--2--------2-2-2--------------------------|


[Outro]
 Guitar:
|-------|---------------------------------------------------------------------------------------------------|
|-------|---------------------------------------------------------------------------------------------------|
|-------|--7-7-7-7-7-7-9-9-9-9-9-9-6-6-6-6-6-6-7-7-7-7-7-7--7-7-7-7-7-7-9-9-9-9-9-9-6-6-6-6-6-6-7-7-7-----9-|
|-7-6---|--7-7-7-7-7-7-9-9-9-9-9-9-6-6-6-6-6-6-7-7-7-7-7-7--7-7-7-7-7-7-9-9-9-9-9-9-6-6-6-6-6-6-7-7-7-6-7---|
|-----7-|--5-5-5-5-5-5-7-7-7-7-7-7-4-4-4-4-4-4-5-5-5-5-5-5--5-5-5-5-5-5-7-7-7-7-7-7-4-4-4-4-4-4-5-5-5-------|
|-------|---------------------------------------------------------------------------------------------------|
 (Guitar cont.)
|---------------------------------------------------------------------------------------------------|--------|--------|
|---------------------------------------------------------------------------------------------------|--------|--------|
|--7-7-7-7-7-7-9-9-9-9-9-9-6-6-6-6-6-6-7-7-7-7-7-7--7-7-7-7-7-7-9-9-9-9-9-9-6-6-6-6-6-6-7-7-7-7-7-7-|-7------|-x------|
|--7-7-7-7-7-7-9-9-9-9-9-9-6-6-6-6-6-6-7-7-7-7-7-7--7-7-7-7-7-7-9-9-9-9-9-9-6-6-6-6-6-6-7-7-7-7-7-7-|-7(x24)-|-x(x24)-|
|--5-5-5-5-5-5-7-7-7-7-7-7-4-4-4-4-4-4-5-5-5-5-5-5--5-5-5-5-5-5-7-7-7-7-7-7-4-4-4-4-4-4-5-5-5-5-5-5-|-5------|-x------|
|---------------------------------------------------------------------------------------------------|--------|--------|

 Keyboard:
|-9-7-5-5-7-9-7-----4-5-7-9---7--9-----|-9p7p5-5-5-7-9-7-----4-5-7-9---7--9------|-9-7-5-5-7-9-7-----4-5-7-9---7--9-----|
|---------------5-7----------------10-*|-----------------5-7----------------10---|---------------5-7----------------7---|
|--------------------------------------|-----------------------------------------|--------------------------------------|
|--------------------------------------|-----------------------------------------|--------------------------------------|
|-------------------------------------*|-----------------------------------------|--------------------------------------|
|--------------------------------------|-----------------------------------------|--------------------------------------|

 (keyboard cont.)
|-17---16---12---12---|--------------------|
|---------------------|--------------------|
|---------------------|--------------------|
|---------------------|--------------------|
|---------------------|--------------------|
|---------------------|--------------------|



Thats what i have for now, correction are more than welcome.

Return to “In Defense of the Genre”

Who is online

Users browsing this forum: No registered users and 1 guest