Died A Jew

luke
Posts: 11
Joined: Sun Aug 10, 2008 10:59 pm

Died A Jew

Postby luke » Sat Aug 16, 2008 3:26 am

DIED A JEW (In Defense Of The Genre, 2007)

Code: Select all

Intro (Bass):
G|---------------------------------------------
D|------------------------7------9--7----------
A|-----------5/7-5---5-7/9-------------9--7-5--
E|--333333333-----5-7-------77777-77-77-77-----

Intro (Guitar)
E|-----------------
B|-----------------
G|-------9999-777--
D|--xxx--9999-777--
A|--xxx--7777-555--
E|--xxx------------

Chorus:
E|--------------------------------------
B|--------------------------------------
G|--------------------9999999999999777--
D|--5555555555555555--9999999999999777--
A|--5555555555555555--7777777777777555--
E|--3333333333333333--------------------

Chorus Lead:
E|----------------------------
B|----------------------------
G|--9~-7~-9~-7~-/9-12~-11~-7~--
D|----------------------------
A|----------------------------
E|----------------------------

That's basically the whole song on guitar. I'll put up lead parts if and when I figure them out, and if I remember the bass part for the verse (my bass teacher taught me a while ago). But this tab still does kinda need some work, so any corrections, contributions would be greatly appreciated.

NoSmokingBandit
Posts: 5
Joined: Fri Aug 15, 2008 10:32 pm

Re: Died A Jew

Postby NoSmokingBandit » Sat Aug 16, 2008 11:36 am

I have a version of this laying around, i tried to get all the lead parts and whatnot.
Put code tags around your tab so it is spaced correctly.
Anyway, heres what i have:

Code: Select all

[Intro]
Lead:                                             ____________                ___________
                                                 |1                          |2
|---------------------|--------------------------|---------------------------|---------------------------|
|---------------------|*-------------------------|--------------------------*|---------------------------|
|-xxx---9-9-9-9-7-7-7-|-9--7--9--7--9--12--11--7-|-9--7--9--7--9--12--11--7*-|-9--7--9--7--9-9-9-9-7-7-7-|
|-xxx-----------------|--------------------------|---------------------------|---------------------------|
|-xxx---7-7-7-7-5-5-5-|*-------------------------|--------------------------*|---------------------------|
|---------------------|--------------------------|---------------------------|---------------------------|

Rhythm:
|-----------------------------|
|-----------------------------|
|--------4-------------4------|
|-5------4(x16)-5------4(x16)-|
|-5(x16)-2------5(x16)-2------|
|-3-------------3-------------|


[Verse]
C-D-Bm-G

>Theres really no guitar here, but heres the chords.

[Pre-chorus]
Lead:                                                       ____________     ___________
                                                           |1               |2
|------------|-------------|-------------------|-----------|----------------|---------------|
|------------|*------------|-------------------|-----------|---------------*|---------------|
|------------|--4--4--4-5--|-2--2--2-2h4p2-0---|-2--2--2-4-|----------------|---------------|
|--4-5-4-2-0-|-------------|-----------------4-|-----------|-5--4--5-4-2-0--|-5~------------|
|------------|*------------|-------------------|-----------|---------------*|---------------|
|------------|-------------|-------------------|-----------|----------------|---------------|

Rhythm:                                                     ____________     ___________
                                                           |1               |2
|------------|-------------|-------------------|-----------|----------------|---------------|
|------------|*------------|-------------------|-----------|---------------*|---------------|
|------------|-------------|-------------------|-----------|----------------|---------------|
|------------|-------------|-------------------|-----------|----------------|-5-------------|
|------------|*------------|-------------------|-----------|---------------*|-5(x16)--------|
|------------|-------------|-------------------|-----------|----------------|-3-------------|


[Chorus]
 Lead:
|-----------------|(x4)
|*---------------*|
|--12-----11------|
|---x(x16)-x(x16)-|
|*-10------9-----*|
|-----------------|

Rhythm:
|------------------------------|
|*----------------------------*|
|---------4-------------4------|
|--5------4(x16)-5------4(x16)-|
|*-5(x16)-2------5(x16)-2-----*|
|--3-------------3-------------|


[Verse 2]
Keyboard Lead:
|--19----20-17----15-14--15-17--19-15---|
|*-------------------------------------*|
|---------------------------------------|
|---------------------------------------|
|*-------------------------------------*|
|---------------------------------------|

>Same chords as first verse plus this cool little lead part. Sounds like a bit of overdrive and a flanger, but do whatever sounds good to you.

[Pre-Chorus]
Lead:
|----------------------------------|------------------------------------|
|---------8~-------------------8~--|------------------------------------|
|/9-7-----------9-7--------7h9-----|-5-----7-----11-----12--------------|
|-----9-7-----------9-7-7h9--------|-5(x8)-7(x8)-11(x8)--x(x5)----------|
|----------------------------------|-3-----5------9-----10--------------|
|----------------------------------|------------------------------------|
                                 PM  *     *      *
Rhythm:
|----------------------------------|------------------------------------|
|----------------------------------|------------------------------------|
|----------------------------------|-5-----7-----11-----12----------5#--|
|----------------------------------|-5(x8)-7(x8)-11(x8)--x(x5)------5#--|
|----------------------------------|-3-----5------9-----10------7#------|
|----------------------------------|----------------------------7#------|
                                 PM  *     *      *


[Chorus]
 Lead:
|-----------------|--------------------------|---------------------------|--------------------------|---------------------------|
|*---------------*|--------------------------|---------------------------|--------------------------|---------------------------|
|--12-----11------|-9--7--9--7--9--12--11--7-|-9--7--9--7--9--12--11--7*-|-9--7--9--7--9--12--11--7-|-9--7--9--7--9-9-9-9-7-7-7-|
|---x(x16)-x(x16)-|--------------------------|---------------------------|--------------------------|---------------------------|
|*-10------9-----*|--------------------------|---------------------------|--------------------------|---------------------------|
|-----------------|--------------------------|---------------------------|--------------------------|---------------------------|

Rhythm:
|------------------------------|
|*----------------------------*|
|---------4-------------4------|
|--5------4(x16)-5------4(x16)-|
|*-5(x16)-2------5(x16)-2-----*|
|--3-------------3-------------|

[Outro]
 Lead
|-------------------------------------------------|
|-------------------------------------------------|
|-5--5--5-5--7--7--7--7-7-7--11--11--11-11-11-12--|
|-x--x--x-x--x--x--x--x-x-x---x---x---x--x--x--x--|
|-3--3--3-3--5--5--5--5-5-5---9---9---9--9--9-10--|
|-------------------------------------------------|

Rhythm
|-------------------------------------------------|
|-------------------------------------------------|
|-5--5--5-5--7--7--7--7-7-7--11--11--11-11-11-12--|
|-5--5--5-5--7--7--7--7-7-7--12--12--12-12-12-12--|
|-3--3--3-3--5--5--5--5-5-5---9---9---9--9--9-10--|
|-------------------------------------------------|


Return to “In Defense of the Genre”

Who is online

Users browsing this forum: No registered users and 1 guest