We Killed it

Mike F
Posts: 1
Joined: Wed Sep 10, 2008 11:58 pm

We Killed it

Postby Mike F » Sat Sep 13, 2008 3:40 pm

Anybody have this tab?

TheStarsScar
Posts: 9
Joined: Sun Dec 07, 2008 8:33 pm

Re: We Killed it

Postby TheStarsScar » Mon Dec 22, 2008 10:51 pm

i also would love to find a copy of this tab. cookies for first one to find/tab it! :D

James
Posts: 13
Joined: Tue Aug 05, 2008 6:29 am

Re: We Killed it

Postby James » Thu Jan 29, 2009 12:44 am

Here's how I play it.

Code: Select all

e|---------------------------------------------------------------|
B|---------------------------------------------------------------|
G|---------------------------------------------------------------|
D|--66--99--66--9--11-------99---99---99-------------------------|
A|--44--77--44--7--9--------77---77---77-------------------------|
E|--------------------------55---55---55---------5-4-0-----------|
  The girl could move..
e|---------------------------------------------------------------|
B|---------------------------------------------------------------|
G|---5------4----------------------------------------------------|
D|---6------6------------2----7-6------2---2-4-2-----------------|
A|---4------4------------2--------7----2-------------------------|
E|-----------------------0-------------0-------------------------|
  "Midwest lay..."   "..crisp"
e|---------------------------------------------------------------|
B|---------------------------------------------------------------|
G|---5------4----------------99---99--99-------------------------|
D|---6------6----------------77---77--77-------------------------|
A|---4------4----------------55---55--55-------------------------|
E|--------------------------------------------5-4-0--------------|
   "I spent a year..."
e|---------------------------------------------------------------|
B|---------------------------------------------------------------|
G|---5------4----------------------------------------------------|
D|---6------6----------------------------------------------------|
A|---4------4----------------------------------------------------|
E|-----------------5-4-00-----5-4-00--5-4-0----------------------|
  "fall apart at night..."
e|--------------------------------------------------------------------------|
B|----99--99--99--99-----99--99--99--99--99--99--99--99----99--99---77--77--|
G|----99--99--99--99-----99--99--99--99--99--99--99--99----99--99---99--99--|
D|-----------------------77--77--77--77-------------------------------------|
A|----99--99--99--99---------------------99--99--99--99----77--77-----------|
E|------------------------------------------------------------------77--77--|
   Repeat this for the whole bridge, when "I dream I dream I dream" comes in just play
it without the gaps between strums.                                                               



   
e|---------------------------------------------------------------|
B|---99999------9999------------99999999--77777777---------------|
G|---99999------9999------------99999999--99999999---------------|
D|----------4---------4------------------------------------------|
A|---99999--4---9999--4---------77777777-------------------------|
E|----------2---------2-------------------77777777---------------|
   "Do you remember me?"    "...one that you loved when he set you free"
e|---------------------------------------------------------------|
B|---99999------9999---------------------------------------------|
G|---99999------9999-----------99999--111111--12-1111111---------|
D|----------4----------4-----------------------------------------|
A|---99999--4---9999---4-------77777---999----10 9999999---------|
E|----------2----------2-----------------------------------------|
   "Do you remember me?"       "one with whom you fell beneath the sea"   


e|---------------------------------------------------------------|
B|---------------------------------------------------------------|
G|---------------------------------------------------------------|
D|----666-99-----------------------------------666---------------|
A|----444-77-66--77--22--44-2--7-6-7777--2222--444---------------|
E|-----------44--55--00--22-0--5-4-5555--0000--------------------|
  "Yeah, we killed it..."


Cookies please.

TheStarsScar
Posts: 9
Joined: Sun Dec 07, 2008 8:33 pm

Re: We Killed it

Postby TheStarsScar » Thu Jan 29, 2009 9:38 pm

what kind does thou like?

James
Posts: 13
Joined: Tue Aug 05, 2008 6:29 am

Re: We Killed it

Postby James » Sun Feb 01, 2009 12:56 pm

Chocolate chip! it's so obvious!


Return to “In Defense of the Genre”

Who is online

Users browsing this forum: No registered users and 1 guest