Rats

Post Reply
User avatar
Norgan
Site Admin
Posts: 239
Joined: Wed Aug 26, 2009 10:30 pm
Location: Baltimore, MD
Contact:

Rats

Post by Norgan » Tue Apr 14, 2020 6:52 pm

Code: Select all

Song: Rats
Artist: Say Anything
Tabbed by: Sean Kellner (norgan@gmail.com)
Tuning: Standard (EADGBe)

Notes:
 - This is just the rhythm guitar. There is a 2nd guitar that adds a lot to the song that is not tabbed here.
 - Strumming patterns are not written into the tab.
 - The time signature switches between 3/4 and 4/4 a few times. Keep an eye out for that.
 - The main part of the outro is just 4 chords played with various strumming and palm muting patterns.
  The last 16 bars tabbed out 

  

Song Structure:
 - Intro/Bridge
 - Verse
 - Chorus
 - Intro/Bridge
 - Verse
 - Chorus
 - Interlude
 - Chorus (no vocals, just power chords)
 - Outro



Intro/Bridge: (3/4)

e|--------|--------|--------|--------|--------|--------|--------|--------|
B|--------|--------|--------|--------|--------|--------|--------|--------|
G|--------|--------|-6------|-7-6----|--------|--------|-6------|-7-6----|
D|-7------|-9------|-6------|-7-6-9--|-7------|-9------|-6------|-7-6-9--|
A|-7------|-9------|-4------|-5-4-9--|-7------|-9------|-4------|-5-4-9--|
E|-5------|-7------|--------|-----7--|-5------|-7------|--------|-----7--|


e|--------|--------|--------|--------|--------|--------|--------|--------|
B|--------|--------|--------|--------|--------|--------|--------|--------|
G|--------|--------|-6------|-7-6----|--------|--------|-7------|--------|
D|-7------|-9------|-6------|-7-6-9--|-5------|--------|-7------|--------|
A|-7------|-9------|-4------|-5-4-9--|-5------|--------|-5------|--------|
E|-5------|-7------|--------|-----7--|-3------|--------|--------|--------|



Verse: (3/4)

e|--------|--------|--------|--------|--------|--------|--------|--------|
B|--------|--------|--------|--------|--------|--------|--------|--------|
G|--------|--------|-----9--|--------|--------|--------|-9------|--------|
D|-----7--|--------|---7----|--------|-7------|--------|-9------|--------| x2
A|---5----|--------|-5------|--------|-7------|--------|-7------|--------|
E|-3------|--------|--------|--------|-5------|--------|--------|--------|
   I'm starting to notice              tails on people I know
   they weren't there                  an hour ago

e|--------|--------|--------|--------|--------|--------|--------|--------|
B|--------|--------|--------|--------|--------|--------|--------|--------|
G|--------|--------|-7------|--------|--------|--------|-9------|--------|
D|-7------|--------|-7------|--------|-7------|--------|-9------|--------|
A|-7------|--------|-5------|--------|-7------|--------|-7------|--------|
E|-3------|--------|--------|--------|-5------|--------|--------|--------|
   ears are ringing                    sound of squeaking

e|--------|--------|--------|--------|--------|--------|--------|--------|
B|--------|--------|--------|--------|--------|--------|--------|--------|
G|--------|--------|-7------|--------|-9------|--------|--------|--------|
D|-7------|--------|-7------|--------|-9------|--------|--------|--------|
A|-7------|--------|-5------|--------|-7------|--------|--------|--------|
E|-3------|--------|--------|--------|--------|--------|--------|--------|
   swear i may be    very last man on earth


Chrous: (4/4)

e|------------------|------------------|------------------|------------------|
B|------------------|------------------|------------------|------------------|
G|------------------|------------------|------------------|------------------|
D|------------------|------------------|------------------|------------------|
A|---------7---7----|---------5-5-5----|-9-9-9-9-4--------|-5-5-5-5-9---7----|
E|-5---5-5----------|-5---5------------|------------------|------------------|
   i smell a rat      smell a slew       skittering         the ceiling

e|------------------|------------------|------------------|------------------|
B|------------------|------------------|------------------|------------------|
G|---------9--------|---------7--------|-11------6--------|-7-------11--9----|
D|-7-------9--------|-7-------7--------|-11------6--------|-7-------11--9----|
A|-7-------7--------|-7-------5--------|-9-------4--------|-5-------9---7----|
E|-5----------------|-5----------------|------------------|------------------|
   it's not myself    must be everybody  else    smell a    rat    smell a rat


Interlude: (4/4)

e|------------------|------------------|------------------|------------------|
B|------------------|------------------|------------------|------------------|
G|------------------|------------------|------------------|------------------|
D|------------------|------------------|------------------|------------------| x3
A|------------------|-4-----4-5-4------|------------------|-4-----4-5-4------|
E|-5-----5-7-----7--|-------------7----|-5-----5-7-----7--|-------------7----|
   board the doors    staying in         won't give up      give in without

e|------------------|------------------|------------------|------------------|
B|------------------|------------------|------------------|------------------|
G|------------------|-6-----6-7-6------|------------------|-7---------9------|
D|-7-----7-9-----9--|-6-----6-7-6-9----|-5----------------|-7---------9------|
A|-7-----7-9-----9--|-4-----4-5-4-9----|-5----------------|-5---------7------|
E|-5-----5-7-----7--|-------------7----|-3----------------|------------------|
   pick up an axe     it's time to fight



Outro: (3/4)

e|--------|--------|--------|--------|
B|--------|--------|--------|--------|
G|--------|--------|--------|--------|
D|-7------|-6------|-5------|-4------|
A|-7------|-7------|-5------|-5------|
E|-5------|-4------|-3------|-2------|

e|--------|--------|--------|--------|--------|--------|--------|--------|
B|--------|--------|--------|--------|--------|--------|--------|--------|
G|--------|--------|--------|--------|--------|--------|--------|--------|
D|-3------|--------|--------|--------|--------|--------|--------|--------|
A|-3------|--------|--------|--------|--------|--------|--------|--------|
E|-1------|--------|--------|--------|--------|--------|--------|--------|

e|--------|--------|--------|--------|--------|--------|--------|--------|
B|--------|--------|--------|--------|--------|-6------|--------|-6------|
G|--------|-2------|--------|-2------|-----7--|---7----|-----7--|---7----|
D|-----3--|---3----|-----3--|---3----|---7----|-----7--|---7----|-----7--|
A|---3----|-----3--|---3----|-----3--|-5------|--------|-5------|--------|
E|-1------|--------|-1------|--------|--------|--------|--------|--------|

e|--------|--------|--------|--------|--------|--------|--------|--------|
B|--------|-1------|--------|-2------|--------|--------|--------|--------|
G|-----3--|---3----|-----3--|---3----|-5------|--------|--------|--------|
D|---3----|-----3--|---3----|-----3--|-5------|--------|--------|--------|
A|-1------|--------|-1------|--------|-3------|--------|--------|--------|
E|--------|--------|--------|--------|--------|--------|--------|--------|

e|--------|--------|--------|--------|--------|--------|--------|--------|
B|--------|--------|--------|--------|--------|--------|--------|--------|
G|--------|--------|--------|--------|-7------|--------|--------|--------|
D|-3------|--------|--------|--------|-7------|--------|--------|--------|
A|-3------|--------|--------|--------|-5------|--------|--------|--------|
E|-1------|--------|--------|--------|--------|--------|--------|--------|
   I've got no                         no one to
   
e|--------|--------|--------|--------|--------|--------|--------|--------|
B|--------|--------|--------|--------|--------|--------|--------|--------|
G|-3------|--------|--------|--------|-7------|--------|--------|--------|
D|-3------|--------|--------|--------|-7------|--------|--------|--------|
A|-1------|--------|--------|--------|-5------|--------|--------|--------|
E|--------|--------|--------|--------|--------|--------|--------|--------|
   no one to                           come home to

 The last few times these outro chords are played, there are a few tweaks
 thrown in, mostly just lifting your pinky finger a few times. See below...
  
e|--------|--------|--------|--------|--------|--------|--------|--------|
B|--------|--------|--------|--------|--------|--------|--------|--------|
G|--------|--------|--------|--------|-7------|--------|--------|--------|
D|-3------|-2------|-3------|--------|-7------|--------|--------|--------|
A|-3------|-3------|-3------|--------|-5------|--------|--------|--------|
E|-1------|-1------|-1------|--------|--------|--------|--------|--------|

e|--------|--------|--------|--------|--------|--------|--------|--------|
B|--------|--------|--------|--------|--------|--------|--------|--------|
G|-3------|-2------|-3------|-2------|-7------|--------|-5------|-7------|
D|-3------|-3------|-3------|-3------|-7------|--------|-7------|-7------|
A|-1------|-1------|-1------|-1------|-5------|--------|-5------|-5------|
E|--------|--------|--------|--------|--------|--------|--------|--------|



Norgan is a real boy!

Post Reply